Oops, an error
Loading. Please wait.

Archives Of Pain Bass Tab

version 2
version 2

Whole song

Interactive

1,468 views 9 this week
no commentswrite comment
1 2 3 4 5
accurate
x 3
add to favorites
launch autoscroll
font size
0
reset
guitar tuner
Autoscroll
slow
fast
+/-
esc
set tempo
stop
Help us to improve Ultimate-Guitar.com Take our survey!
×
Author
Difficulty
novice
Great song I highly recommend to anyone. The "bodies hang from the gallows" is only the
usually a slide or two is initiated up and down the fretboard depending on the section,
easy enough to work out or just do your own thing. Possibly a 'C' note is used in that 
before the A# goes into a D.

Im 100% sure this is accurate maybe a few legends I didnt use such as slide indicators
its for you to work with.

Main Riff
G---------------------------------|
D---------------------------------|
A---------------------------------|
D-0-4-5-6-7-0-0---0-1-1---0-1-1---|

when guitar plays the same riff

G---------------------------------|
D---------------------------------|
A---------------------------------|
D-0-4-5-6-7-0-0-0-0-1-1-1-0-1-1-1-|


"bodies hang from the gallows"

G---------------------------------|
D---------------------------------|
A-1-----------1-----------1-------|
D(8)---------(8)---------(8)------| (alternatives used for slide sections)

G---------------------------------|
D---------------------------------|
A-5-----------5-----------5-------|
D(12)--------(12)--------(12)-----|

Pre Chorus
G---------------------------------|
D---------------------------------|
A-1-1---1-1---1-1--1-1----1---1---|
D---------------------------------|

Chorus
G---------------------------------|
D---------------------------------|
A-810-8-7---7-7-7-6-8-6-5---5-5-5-|
D---------------------------------|


"respect they deserve"
G-----------------------------------------------------------------|
D-----------------------------------------------------------------|
A-0-3-3-3-0-3-3-3-0-5-5-5-0-5-5-5-0-1-1-1-0-1-1-1-0-5-5-5-0-5-5-5-|
D-----------------------------------------------------------------|

G-----------------------------------------------------------------|
D-----------------------------------------------------------------|
A-0-3-3-3-0-3-3-3-0-5-5-5-0-5-5-5-0-1~----1~----1~----1~----1--1--|
D-----------------------------------------------------------------|


"solo/end"

G---------------------------------|
D---------------------------------|
A-5---5---5---5---3---3---3---3---|
D---------------------------------|

G---------------------------------|
D---------------------------------|
A-5-5-5-5-5-5-5-5-3-3-3-3-3-3-3-3-|
D---------------------------------|


Long Live The Holy Bible
Suggest correction
Give kudos to tab author, rate the tab!
1 2 3 4 5
comments
print report bad tab
guest
You may want to rate the tab now too:
select rating
Wanna post a correction for this tab? Suggest correction