Oops, an error
Loading. Please wait.

Donkeys Tab

version 1
version 1

Whole song

Interactive

3,280 views 1 this week
no commentswrite comment
1 2 3 4 5
1 last vote to show rating
add to favorites
launch autoscroll
font size
0
reset
how to read this tab
guitar tuner
Autoscroll
slow
fast
+/-
esc
set tempo
stop
Help us to improve Ultimate-Guitar.com Take our survey!
×
Author
Intro:
e ---------------------------------------------------------|
b -------2-----------2---------------3-----------3---------|
g -----2---2-------2---2-----------2---4-------2---4-------|
d ---2-------2---2-------2---2---4-------4---4-------4---4-|
a -0-----------0-----------0---2-----------2-----------2---|
e ---------------------------------------------------------|

e -------0-----------------------|
b -----3---3-1-0h1p0---0-2-2-2-3-|
g ---2---------------2---2-2-2-2-|
d -0---------------------2-----2-|
a -----------------------0-------|
e -------------------------------|

Verse 1:
e -0-------------------------------2------------2------|
b -2-------------------------------3------------3------|
g -2--------------2----------------4------------4------|
d -2--------------2----------------4-------------------|
a -0--------------0----------------2-------------------|
e -----------------------------------------------------|
Put some lipstick on at least your lies will be pretty

e -0----------0-----------0----------------------|
b -3----------1-----------2---------------3------|
g -2----------2-----------2---------------2------|
d -0----------3-----------2---------------2------|
a ------------3-----------0----------------------|
e -----------------------------------------------|
Shadows on my face and us donkeys wake up weary

e -0-0-0-0-0-0-0-0-0-0-0-0-0-0-0-0-2-2-2-2-2-2-2-2-2-2-|
b -2-2-2-2-2-2-2-2-2-2-2-2-2-2-2-2-3-3-3-3-3-3-3-3-3-3-|
g -2-2-2-2-2-2-2-2-2-2-2-2-2-2-2-2-4-4-4-4-4-4-4-4-4-4-|
d -2-2-2-2-2-2-2-2-2-2-2-2-2-2-2-2-4-4-4-4-4-4-4-4-4-4-|
a -0-0-0-0-0-0-0-0-0-0-0-0-0-0-0-0-4-4-4-4-4-4-4-4-4-4-|
e -----------------------------------------------------|
Sweating and sickly donkey's don't allow their tears

e -0-0-0-0-0-0-0-0-0-0-0-0-0-0-0-0-0-0-0-0-0------|
b -3-3-3-3-3-3-1-1-1-1-1-1-2-2-2-2-2-2-2-2-3------|
g -2-2-2-2-2-2-2-2-2-2-2-2-2-2-2-2-2-2-2-2-2------|
d -0-0-0-0-0-0-3-3-3-3-3-3-2-2-2-2-2-2-2-2-2------|
a -------------3-3-3-3-3-3-0-0-0-0-0-0-0-0-0------|
e ------------------------------------------------|
No emotion never feel and drown themselves in whatever

Prechorus:
e -------------0-----0-|
b -------------2-2---2-|
g -7-6-4-------2-2-2-2-|
d -7-6-4-5-4-2-2-2-2-2-|
a -5-4-2-5-4-2-0-0-0-0-|
e -------3-2-0---------|
Found some meaning

e -------------------------------3-1-3-1-3-1-0-|
b -----3-----3-----3-----3-------3-3-3-3-3-3-2-|
g ---2-----2-----2-----2-----2---2-2-2-2-2-2-2-|
d -5-----4-----3-----0-----------0-0-0-0-0-0-2-|
a -------------------------3-----------------0-|
e -----------------------------1---------------|
Donkey's weight cracking a spire

Break:
e ---------------------------------------------------------|
b -------2-----------2---------------3-----------3---------|
g -----2---2-------2---2-----------2---4-------2---4-------|
d ---2-------2---2-------2---2---4-------4---4-------4---4-|
a -0-----------0-----------0---2-----------2-----------2---|
e ---------------------------------------------------------|

e -------0-----------------------|
b -----3---3-1-0h1p0---0-2-2-2-3-|
g ---2---------------2---2-2-2-2-|
d -0---------------------2-----2-|
a -----------------------0-------|
e -------------------------------|

Verse 2:
e -0------------0-------------------------------|
b -2------------2-------------------------------|
g -2------------2-----------4-----------4-------|
d -2------------2-----------4-----------4-------|
a -0------------------------2-------------------|
e -0--------------------------------------------|
Sweetness bent double whole days making polite

e ----0-------------1------------0--------------------|
b ----3-------------1------------2-------------3------|
g ----2-------------2------------2-------------2------|
d ----0-------------3------------2-------------2------|
a ------------------3------------0--------------------|
e ------------------1---------------------------------|
Never moving out of turn or ever trying to be natural

e -----------------0-----------------------------2--------|
b -----------------2-----------------------------3--------|
g --2--------------2----------4------------------4--------|
d --2--------------2----------4------------------4--------|
a --------------------------------------------------------|
e --------------------------------------------------------|
Those with silent inside eyes bare piss holes in the snow

e ----------0---------0-----0-------------0-----|
b ----------3---------1-----2-------------3-----|
g -2--------2-----2---2-----2-------------2-----|
d -0--------0-----3---3-----2-------------2-----|
a -0--------0-----3---3-----0-------------0-----|
e ----------------1---1-------------------------|
Drained and burnt yellow and sunk in self pity

Prechorus:
e -------------0-----0-|
b -------------2-2---2-|
g -7-6-4-------2-2-2-2-|
d -7-6-4-5-4-2-2-2-2-2-|
a -5-4-2-5-4-2-0-0-0-0-|
e -------3-2-0---------|
Jerusalem saw off

e -------------------------------3-1-3-1-3-1-|
b -----3-----3-----3-----3-------3-3-3-3-3-3-|
g ---2-----2-----2-----2-----2---2-2-2-2-2-2-|
d -5-----4-----3-----0-----------0-0-0-0-0-0-|
a -------------------------3-----------------|
e -----------------------------1-------------|
Donkeys are only left with lies

e -1-
b -3-
g -2-
d -0-
a -0-
e ---
Are only left with lies

Solo :
e --------------------------------------------9-----------------------------10-12-|
b -s14-12b14-12b14-12b14-14r12\10-10b12r10b12----10-------10b12-12b14-12b14-------|
g --------------------------------------------------11-11-------------------------|
d --------------------------------------------------------------------------------|
a --------------------------------------------------------------------------------|
e --------------------------------------------------------------------------------|

e -12b13-r12p10-------------9b10r--s12-------12-------12-------12-------15b16-|
b --------------12b14-12b14------------14-12----14-12----14-12----14-12-------|
g ----------------------------------------------------------------------------|
d ----------------------------------------------------------------------------|
a ----------------------------------------------------------------------------|
e ----------------------------------------------------------------------------|

e -13-14-13h14p13-11h13p11-|
b -------------------------|
g -------------------------|
d -------------------------|
a -------------------------|
e -------------------------|

e -------13-------------------13------------------13----------|
b ----------15p13----------------15p13---------------15p13----|
g -12b14----------14-12-12b14---------14-12-12b14----------14-|
d ------------------------------------------------------------|
a ------------------------------------------------------------|
e ------------------------------------------------------------|

e -------------------------------------------------------|
b ---10-------------8------------------------------------|
g ------9-------------7-----------9----8-----9-----8-----|
d -------------10-----------8---9--------9-----9-----9---|
a -8--------10----6-------8---7------0-----0-----0-----0-|
e --------8-------------6--------------------------------|

e -----------8--8--6-6-7-12-|
b -----------10-8--8-6-8-13-|
g -9-----9---9--9--7-7-9-14-|
d ---9-----9-10-10-8-8-9-14-|
a -----------8--10-6-8-7-12-|
e --------------8----6------|
Suggest correction
Give kudos to tab author, rate the tab!
1 2 3 4 5
comments
print report bad tab
guest
You may want to rate the tab now too:
select rating
Wanna post a correction for this tab? Suggest correction