Oops, an error
Loading. Please wait.

Ifwhiteamericatoldthetruthforonedayitsworldwouldfallapart tab

version 2
version 2

Whole song

Interactive

217 views 1 this week
no commentswrite comment
1 2 3 4 5
2 more votes to show rating
add to favorites
×
Save as Personal and add changes to this tab that will be seen only by you. Learn more ›
×
You can save this tab as Personal to edit and correct it or add notes. All changes will be seen only by you. Learn more »
launch autoscroll
font size
0
reset
how to read this tab
guitar tuner
edit
Autoscroll
slow
fast
+/-
esc
set tempo
stop
Author
Difficulty
Enjoy!


E|---------------------------------|---------------------------------|---------------------------------|
B|---------------------------------|---------------------------------|---------------------------------|
G|---------------------------------|---------------------------------|---------------------------------|
D|-----------------2---4-----------|---------2---4-------------------|-2---4-------------------2---4---|
A|---------2---4-------------------|-2---4-------------------2---4---|-----------------2---4-----------|
E|-2---4-------------------2---4---|-----------------2---4-----------|---------2---4-------------------|


E|---------------------------------|---------------------------------|---------------------------------|
B|---------------------------------|---------------------------------|---------------------------------|
G|-----------------0---------------|-----------------0---------------|-----------------0---------------|
D|-------------6-------6-------6---|-------------6-------6-------6---|-------------6-------6-------6---|
A|---------7---------------7-------|---------7---------------7-------|---------7---------------7-------|
E|-0---0---------------------------|-0---0---------------------------|-0---0---------------------------|


E|---------------------------------|---------------------------------|---------------------------------|
B|---------------------------------|---------------------------------|---------------------------------|
G|-----------------0---------------|-----------------0---------------|-----------------0---------------|
D|-------------6-------6-------6---|-------------6-------6-------6---|-------------6-------6-------6---|
A|---------7---------------7-------|---------7---------------7-------|---------7---------------7-------|
E|-0---0---------------------------|-0---0---------------------------|-0---0---------------------------|


E|---------------------------------|---------------------------------|---------------------------------|
B|---------------------------------|---------------------------------|---------------------------------|
G|-----------------0---------------|-----------------0---------------|-----------------0---------------|
D|-------------6-------6-------6---|-------------6-------6-------6---|-------------6-------6-------6---|
A|---------7---------------7-------|---------7---------------7-------|---------7---------------7-------|
E|-0---0---------------------------|-0---0---------------------------|-0---0---------------------------|


E|---------------------------------|---------------------------------|---------------------------------|
B|---------------------------------|---------------------------------|---------------------------------|
G|-----------------0---------------|-----------------0---------------|-----------------0---------------|
D|-------------6-------6-------6---|-------------6-------6-------6---|-------------6-------6-------6---|
A|---------7---------------7-------|---------7---------------7-------|---------7---------------7-------|
E|-0---0---------------------------|-0---0---------------------------|-0---0---------------------------|


E|---------------------------------|---------------------------------|---------------------------------|
B|---------------------------------|---------------------------------|---------------------------------|
G|-----------------0---------------|-----------------0---------------|-----------------0---------------|
D|-------------6-------6-------6---|-------------6-------6-------6---|-------------6-------6-------6---|
A|---------7---------------7-------|---------7---------------7-------|---------7---------------7-------|
E|-0---0---------------------------|-0---0---------------------------|-0---0---------------------------|


E|---------------------------------|---------------------------------|---------------------------------|
B|---------------------------------|---------------------------------|---------------------------------|
G|-----------------0---------------|-----------------0---------------|-----------------0---------------|
D|-------------6-------6-------6---|-------------6-------6-------6---|-------------6-------6-------6---|
A|---------7---------------7-------|---------7---------------7-------|---------7---------------7-------|
E|-0---0---------------------------|-0---0---------------------------|-0---0---------------------------|


E|---------------------------------|---------------------------------|--------|--------|
B|---------------------------------|---------------------------------|--------|--------|
G|-----------------0---------------|-----------------0---------------|--------|--------|
D|-------------6-------6-------6---|-------------6-------6-------6---|--------|--------|
A|---------7---------------7-------|---------7---------------7-------|--------|--------|
E|-0---0---------------------------|-0---0---------------------------|--------|--------|


E|--------|--------------|---------------------------------|--------------------------------------|
B|--------|--------12-12-|-12------12------12------12------|-12-12-12-12-12------12-12-12-12-12---|
G|--------|--------9--9--|-9-------9-------9-------9-------|-9--9--9--9--9-------9--9--9--9--9----|
D|--------|--------9--9--|-9-------9-------9-------9-------|-9--9--9--9--9-------9--9--9--9--9----|
A|--------|--------------|---------------------------------|--------------------------------------|
E|--------|--------------|---------------------------------|--------------------------------------|


E|-------------|-------------|-------------|-----------------|-------------|-------------|
B|-------------|-------------|-------------|-----------------|-------------|-------------|
G|-6------6----|-2------2----|-9------9----|-4-----4----5----|-6------6----|-2------2----|
D|-6------6----|-2------2----|-9------9----|-4-----4----5----|-6------6----|-2------2----|
A|-4------4----|-0------0----|-7------7----|-2-----2----3----|-4------4----|-0------0----|
E|-------------|-------------|-0------0----|-----------------|-------------|-------------|


E|-------------|-------------|--------|---------------------------|------------------------------|
B|-------------|-------------|--------|---------------------------|------------------------------|
G|-9------9----|-4------7----|-4------|-9---9-----------9----11---|-13--13----------13---13--14--|
D|-9------9----|-4------7----|-4------|---------------------------|------------------------------|
A|-7------7----|-2------5----|-2------|-7---7-----------7----9----|-11--11----------11---11--12--|
E|-0------0----|-------------|--------|-------------0-------------|-------------0----------------|


E|---------------------------|---------------------------|---------------------------|
B|---------------------------|---------------------------|---------------------------|
G|-13--13----------13---11---|-9---9-----------9-----9---|-11--11----------11---9----|
D|---------------------------|---------------------------|---------------------------|
A|-11--11----------11---9----|-7---7-----------7-----7---|-9---9-----------9----7----|
E|-------------0-------------|-------------0-------------|-------------0-------------|


E|---------------------------|---------------------------|--------|--------|--------|
B|---------------------------|---------------------------|--------|--------|--------|
G|-7---7-----------7-----11--|-9---9-----------9----6----|-4------|--------|--------|
D|---------------------------|---------------------------|--------|--------|--------|
A|-5---5-----------5-----9---|-7---7-----------7----4----|-2------|--------|--------|
E|-------------0-------------|-------------0-------------|-0------|--------|--------|



E|--------|--------|--------|-------------|--------|--------|--------|--------|--------------|
B|--------|--------|--------|-------------|--------|--------|--------|--------|--------12-12-|
G|--------|-12-----|-12-----|-12----12----|-12-----|-12-----|-12-----|--------|--------9--9--|
D|--------|--------|--------|-------------|--------|--------|--------|--------|--------9--9--|
A|--------|--------|--------|-------------|--------|--------|--------|--------|--------------|
E|--------|--------|--------|-------------|--------|--------|--------|--------|--------------|


E|---------------------------------|--------------------------------------|-------------|
B|-12------12------12------12------|-12-12-12-12-12------12-12-12-12-12---|-------------|
G|-9-------9-------9-------9-------|-9--9--9--9--9-------9--9--9--9--9----|-6------6----|
D|-9-------9-------9-------9-------|-9--9--9--9--9-------9--9--9--9--9----|-6------6----|
A|---------------------------------|--------------------------------------|-4------4----|
E|---------------------------------|--------------------------------------|-------------|


E|-------------|-------------|-----------------|-------------|-------------|-------------|
B|-------------|-------------|-----------------|-------------|-------------|-------------|
G|-2------2----|-9------9----|-4-----4----5----|-6------6----|-2------2----|-9------9----|
D|-2------2----|-9------9----|-4-----4----5----|-6------6----|-2------2----|-9------9----|
A|-0------0----|-7------7----|-2-----2----3----|-4------4----|-0------0----|-7------7----|
E|-------------|-0------0----|-----------------|-------------|-------------|-0------0----|


E|-------------|--------|---------------------------|------------------------------|
B|-------------|--------|---------------------------|------------------------------|
G|-4------7----|-4------|-9---9-----------9----11---|-13--13----------13---13--14--|
D|-4------7----|-4------|---------------------------|------------------------------|
A|-2------5----|-2------|-7---7-----------7----9----|-11--11----------11---11--12--|
E|-------------|--------|-------------0-------------|-------------0----------------|


E|---------------------------|---------------------------|---------------------------|
B|---------------------------|---------------------------|---------------------------|
G|-13--13----------13---11---|-9---9-----------9-----9---|-11--11----------11---9----|
D|---------------------------|---------------------------|---------------------------|
A|-11--11----------11---9----|-7---7-----------7-----7---|-9---9-----------9----7----|
E|-------------0-------------|-------------0-------------|-------------0-------------|


E|---------------------------|---------------------------|------------------------------|
B|---------------------------|---------------------------|------------------------------|
G|-7---7-----------7-----11--|-9---9-----------9----6----|-4---4-----------4----4---4---|
D|---------------------------|---------------------------|------------------------------|
A|-5---5-----------5-----9---|-7---7-----------7----4----|-2---2-----------2----2---2---|
E|-------------0-------------|-------------0-------------|-------------0----------------|


E|---------------------------|------------------------------|---------------------------|
B|---------------------------|------------------------------|---------------------------|
G|-9---9-----------9----11---|-13--13----------13---13--14--|-13--13----------13---11---|
D|---------------------------|------------------------------|---------------------------|
A|-7---7-----------7----9----|-11--11----------11---11--12--|-11--11----------11---9----|
E|-------------0-------------|-------------0----------------|-------------0-------------|


E|---------------------------|---------------------------|---------------------------|
B|---------------------------|---------------------------|---------------------------|
G|-9---9-----------9-----9---|-11--11----------11---9----|-7---7-----------7-----11--|
D|---------------------------|---------------------------|---------------------------|
A|-7---7-----------7-----7---|-9---9-----------9----7----|-5---5-----------5-----9---|
E|-------------0-------------|-------------0-------------|-------------0-------------|


E|---------------------------|-------------------------------|-----------------|--------|
B|---------------------------|-------------------------------|-----------------|--------|
G|-9---9-----------9----6----|-5----5----5----5----5----5----|-5-----5---------|--------|
D|---------------------------|-------------------------------|-----------------|--------|
A|-7---7-----------7----4----|-3----3----3----3----3----3----|-3-----3---------|--------|
E|-------------0-------------|-------------------------------|-----------------|--------|


E|--------|--------|--------|--------|--------|--------|----------------|---------------------------------|
B|--------|--------|--------|--------|--------|--------|----------------|---------------------------------|
G|--------|--------|--------|--------|--------|--------|----------------|---------------------------------|
D|--------|--------|--------|--------|--------|--------|----------------|-------------2---4---------------|
A|--------|--------|--------|--------|--------|--------|----------------|-----2---4-------------------2---|
E|--------|--------|--------|--------|--------|--------|------------2---|-4-------------------2---4-------|


E|---------------------------------|---------------------------------|---------------------------------|
B|---------------------------------|---------------------------------|---------------------------------|
G|---------------------------------|---------------------------------|---------------------------------|
D|-----2---4-------------------2---|-4-------------------2---4-------|-------------2---4---------------|
A|-4-------------------2---4-------|-------------2---4---------------|-----2---4-------------------2---|
E|-------------2---4---------------|-----2---4-------------------2---|-4-------------------2---4-------|


E|---------------------------------|---------------------------------|---------------------------------|
B|---------------------------------|---------------------------------|---------------------------------|
G|---------------------------------|---------------------------------|---------------------------------|
D|-----2---4-------------------2---|-4-------------------2---4-------|-------------2---4---------------|
A|-4-------------------2---4-------|-------------2---4---------------|-----2---4-------------------2---|
E|-------------2---4---------------|-----2---4-------------------2---|-4-------------------2---4-------|


E|---------------------------------|---------------------------------|---------------------------------|
B|---------------------------------|---------------------------------|---------------------------------|
G|---------------------------------|---------------------------------|---------------------------------|
D|-----2---4-------------------2---|-4-------------------2---4-------|-------------2---4---------------|
A|-4-------------------2---4-------|-------------2---4---------------|-----2---4-------------------2---|
E|-------------2---4---------------|-----2---4-------------------2---|-4-------------------2---4-------|


E|---------------------------------|---------------------------------|---------------------------------|
B|---------------------------------|---------------------------------|---------------------------------|
G|---------------------------------|---------------------------------|---------------------------------|
D|-----2---4-------------------2---|-4-------------------2---4-------|-------------2---4---------------|
A|-4-------------------2---4-------|-------------2---4---------------|-----2---4-------------------2---|
E|-------------2---4---------------|-----2---4-------------------2---|-4-------------------2---4-------|


E|---------------------------------|-----------------------------0--0--|-0---0------|
B|---------------------------------|-----------------------------3--3--|-3---3------|
G|---------------------------------|-----------------------------2--2--|-2---2------|
D|-----2---4-------------------2---|-4-------------------2---4---0--0--|-0---0------|
A|-4-------------------2---4-------|-------------2---4-----------------|------------|
E|-------------2---4---------------|-----2---4-------------------------|------------|
Suggest correction
Creating personal tab
Creating personal tab
You can edit any tab online and save it as your Personal.

You can edit, replace or remove any tab part or add personal notes – all changes will be seen only by you.

Personal tabs can be accessed anytime from any device, even offline.
Learn more »
Give kudos to tab author, rate the tab!
1 2 3 4 5
comments
print report bad tab
guest
You may want to rate the tab now too:
select rating
Wanna post a correction for this tab? Suggest correction