Oops, an error
Loading. Please wait.

Motown Junk tab

version 1
version 1

Whole song

Interactive

8,706 views 1 this week
1 commentread comment
1 2 3 4 5
x 4
add to favorites
×
Save as Personal and add changes to this tab that will be seen only by you. Learn more ›
×
You can save this tab as Personal to edit and correct it or add notes. All changes will be seen only by you. Learn more »
launch autoscroll
font size
0
reset
how to read this tab
guitar tuner
edit
Autoscroll
slow
fast
+/-
esc
set tempo
stop
MOTOWN JUNK

[Intro]

e -------------------5------------------------|
B ------10-----8-----7-----7---7-bu-(8)-rb----|
G ------11-----9-----------6---------------6--|
D --0-0----0-0---0-0---0-0---0----------------|
A --------------------------------------------|
E --------------------------------------------|

e --------------------5-5-------|
B --10-10-----8-8-----7-7----7--|
G --11----11\-9---9\-------6----|
D --0---------------------------|
A ------------------------------|
E ------------------------------|

[Verse]

D5
Never ever wanted to be with you
D5
All you ever gave me was the bordom I suffocate in
G5     G5
D5
Adrift in cheap dreams don't stop the rain
D5
Numbed out in piss towns just wanna dig their graves
G5     G5

[Bridge]

D5     G5   B5 A5
A5
Motown, Motown Junk
D5     G5   B5 A5
A5
I laughed when Lennon got shot
G5                             A5
21 years of living and nothing means anything to me

[Verse 2]

Dsus4          D
Motown Junk a lifetime of slavery
Dsus4              D
Songs of love echo underclass betrayal
Dsus4                        D
Stops your heart beating for 168 seconds
Dsus4                         D
Stops your brain thinking for 168 seconds

[Chorus]

Dsus4   D               Dsus4  D
Motown Junk            Motown Junk

Dsus4   D               Dsus4  D
Motown Junk            Motown Junk

D5       A5
Motown

            
            
Suggest correction
Creating personal tab
Creating personal tab
You can edit any tab online and save it as your Personal.

You can edit, replace or remove any tab part or add personal notes – all changes will be seen only by you.

Personal tabs can be accessed anytime from any device, even offline.
Learn more »
comments
print report bad tab
1 comment total.
0 reply
TJ1991 2,044 Jan 02, 2007 01:10 AM

well, the chords are correct, but the intro is
e --------------------------------------------|
B ------10-----8-----7-----7---7-bu-(8)-rb----|
G ------11-----9-----7-----6---------------6--|
D --0-0----0-0---0-0---0-0---0----------------|
A --------------------------------------------|
E --------------------------------------------|

guest
Wanna post a correction for this tab? Suggest correction