Oops, an error
Loading. Please wait.

Motown Junk bass

version 2
version 2

Whole song

Interactive

1,062 views 1 this week
no commentswrite comment
1 2 3 4 5
3 more votes to show rating
add to favorites
×
Save as Personal and add changes to this tab that will be seen only by you. Learn more ›
×
You can save this tab as Personal to edit and correct it or add notes. All changes will be seen only by you. Learn more »
launch autoscroll
font size
0
reset
guitar tuner
edit
Autoscroll
slow
fast
+/-
esc
set tempo
stop
----------------------------------------------------------------------------
		MOTOWN JUNK - Manic Street Preachers
----------------------------------------------------------------------------

Tabbed By : lilwelshrocker
e-mail: welshboymeredith_2k8@hotmail.co.uk

Tuning:EADG

Intro

G|----------------|
D|----------------|
A|5-555------2-222|
E|-----00-3-3-----|

Main Riff
G|----------------|
D|----------------|
A|5-555------2-222|
E|-----00-3-3-----|

Fill 1
G|-------------------------------------|
D|-------------------------------------|
A|1010-1010-12101210-1010-1010-12101210|
E|-------------------------------------|

Chorus Part 1
G|----------------|
D|----------------|
A|----------------|
E|5-5-55-5-555-5-5|

Chorus Part 2
G|------------------------------------------------|
D|------------------------------------------------|
A|------------------------------------------------|
E|3333333333333333333333333333/5555555555555555555|

Chorus Part 3
G|----------------|
D|----------------|
A|5-5-5---2-22-020|
E|------03--------|

Chorus Part 4 (you get the idea with the 5's)End on open A
G|---------------|
D|---------------|
A|555555555555555|
E|---------------|

Fill 2
G|---------|
D|---------|
A|---------|
E|000333555|

Bridge (Listen for the timings)
G|-----------------------------|
D|-----------------------------|
A|-----------------------------|
E|5~--5~--5~--5~-5~--5~--5~--5~|

Order Of Play:
Intro 0:23 x2
Main Riff x2
Fill 1 x1
Main Riff x2
Fill 1 x1
Main Riff x1
Chours Part 1 x1
Main Riff x1
Chorus Part 1 x1
Chorus Part 2 x1
Chorus Part 3 x4
Chorus Part 4
Fill 2 1:34 x1
Main Riff x2
Fill 1 x1
Main Riff x2
Fill 1 x1
Main Riff x2
Fill 1 x1
Main Riff x1
Chorus Part 1 x1
Main Riff x1
Chorus Part 1 x1
Chorus Part 2 x1
Chorus Part 3 x4
Chorus Part 4 x1
Bridge x1
Chorus Part 3 x4
Chorus Part 4 x1 end on open D

Enjoy the tab. It is a really fun song to play. Please give me your opinions on this 
ROCK ON!!
| /  slide up
| ~  vibrato
============================================================================

            
            
Suggest correction
Creating personal tab
Creating personal tab
You can edit any tab online and save it as your Personal.

You can edit, replace or remove any tab part or add personal notes – all changes will be seen only by you.

Personal tabs can be accessed anytime from any device, even offline.
Learn more »
Give kudos to tab author, rate the tab!
1 2 3 4 5
comments
print report bad tab
guest
You may want to rate the tab now too:
select rating
Wanna post a correction for this tab? Suggest correction