Oops, an error
Loading. Please wait.

Pretension Repulsion tab

1,432 views 1 this week
3 commentsread comments
1 2 3 4 5
2 more votes to show rating
add to favorites
×
Save as Personal and add changes to this tab that will be seen only by you. Learn more ›
×
You can save this tab as Personal to edit and correct it or add notes. All changes will be seen only by you. Learn more »
launch autoscroll
font size
0
reset
how to read this tab
guitar tuner
edit
Autoscroll
slow
fast
+/-
esc
set tempo
stop
Tabbed by manOutOfTime

Intro
------------------------------||
------------------------------||
-----0---2-0------------------||
---3---------3-----0---3-0----||
-1-----1---------2---------2--||
---------------3-----3--------||
 (Bb)          (G)
rpt through verses

Sickened and housed street death's burned
Blacked, lived, compelled and cold
Closed down and swallowed formed and regained
Blacked, curt, gloat and discerned

G5        D#5
Shot from shot
F5            C5
The androgyny fails

|-----------------|
|-----------------|
|-7b-7br-5--4vvv--|
|-----------------|
|-----------------|
|-----------------|

G5           D#5
Odalisque by Ingres
F5                 C5
Yet your bones for sale
C5
Bornographic vs pornographic
D#5
Pornographic

---------------|------------|
---------------|------------|
---------------|------------|
---1---0-------|------------|
---------------|------------|
-0---0---1vvv--|------------|


Verse:
Expertly clothed amazed and perturbed
Assumed annoyed and ceased
Bow down together
Agonised and locked
Mixed, sealed and received

G5        D#5
Shot from shot
F5            C5
The androgyny fails

|-----------------|
|-----------------|
|-7b-7br-5---4vvv-|
|-----------------|
|-----------------|
|-----------------|

G5           D#5
Odalisque by Ingres
F5                 C5
Yet your bones for sale
C5
Bornographic vs pornographic
D#5
Pornographic

Solo

G5        D#5
Shot from shot
F5            C5
The androgyny fails

|-----------------|
|-----------------|
|-7b-7br-5--4vvv--|
|-----------------|
|-----------------|
|-----------------|

G5           D#5
Odalisque by Ingres
F5                 C5
Yet your bones for sale
C5
Bornographic vs pornographic
D#5
Pornographic

---------------|------------|
---------------|------------|
---------------|------------|
---1---0-------|------------|
---------------|------------|
-0---0---1vvv--|------------
Suggest correction
Creating personal tab
Creating personal tab
You can edit any tab online and save it as your Personal.

You can edit, replace or remove any tab part or add personal notes – all changes will be seen only by you.

Personal tabs can be accessed anytime from any device, even offline.
Learn more »
Give kudos to tab author, rate the tab!
1 2 3 4 5
comments
print report bad tab
3 comments total.
0 reply
hiya77 563 Aug 11, 2013 01:35 AM

perfect apart from it is

Bornographic vs pornographic
D#5
Pornographic

in the chorus. otherwise it's a great tab!!

0 reply
hiya77 563 Aug 11, 2013 01:36 AM

C5
Bornographic vs pornographic
D#5
Pornographic

guest
You may want to rate the tab now too:
select rating
Wanna post a correction for this tab? Suggest correction