Oops, an error
Loading. Please wait.

This Is Yesterday Tab

version 1
version 1

Acoustic

Whole song

Interactive

85 views 12 this week
no commentswrite comment
1 2 3 4 5
2 more votes to show rating
add to favorites
launch autoscroll
font size
0
reset
how to read this tab
guitar tuner
Autoscroll
slow
fast
+/-
esc
set tempo
stop
Help us to improve Ultimate-Guitar.com Take our survey!
×
Author
Difficulty
Tuning
intermediate
D G D G B D
Tabbed by: Branko Acimovic (bane933@gmail.com for any questions/notes/critics)

I think this is pretty correct, I looked at live performances and it all adds up to this.
JDB will sometimes doodle in the outro so you can do your own improv there. Great song.


[Intro and Verses)

D|--------------------------------------------------------------------------------------|
B|----------------------------------------------------7------5--------3--------5--------|
G|-----9-7---2-0---4--------------9-7---2-0---4-4-------7------5--------0--------5------|
D|-----9-7---2-0---5--------------9-7---2-0---5-5----------------5--------4--------5----|
G|---0--0--0-----0-----------0--0--0--0-----0--0---5-------5--------5--------5----------|
D|--------------------0--0h2------------------------------------------------------------|


D|--------------------------------------------------------------------------------------|
B|------7------5----------1-1---1---1---1-----------------------------------------------|
G|--------7------5--------0-0---0---0---0-----------------------------------------------|
D|-----------------5------2-2---2---2---2-(strum and let ring)--------------------------|
G|---5-------5--------5---2-2---2---2---2-----------------------------------------------|
D|--------------------------------------------------------------------------------------|


[Chorus]

D|---------------------------------------------------------------------------------------|
B|------12-------12-------12-----10-------10-------10----8------8------8-----------------|
G|---------0--------0---------------0--------0-------------0------0----------------------|
D|-----------12-------12--------------10-------10------------9------9--------------------|
G|---0------------------------0-----------------------0----------------------------------|
D|---------------------------------------------------------------------------------------|


D|---------------------------------------------------------------------------------------|
B|------7------7------7-----5-------5------5-----3-----3------3--------------------------|
G|--------0------0------------5-------5------------0-----0-------------------------------|
D|----------7------7------------5-------5------------4-----4-----------------------------|
G|---0-------------------5--------------------5------------------------------------------|
D|---------------------------------------------------------------------------------------|


D|---------------------------------------------------------------------------------------|
B|------5------5------5-----3------3------3----------------------------------------------|
G|--------5------5------------0------0---------------------------------------------------|
D|----------5------5------------4------4-------------------------------------------------|
G|---5-------------------5---------------------------------------------------------------|
D|---------------------------------------------------------------------------------------|


D|---------------------------------------------------------------------------------------|
B|------12-------12-------12-----10-------10-------10----8------8------8-----------------|
G|---------0--------0---------------0--------0-------------0------0----------------------|
D|-----------12-------12--------------10-------10------------9------9--------------------|
G|---0------------------------0-----------------------0----------------------------------|
D|---------------------------------------------------------------------------------------|


D|---------------------------------------------------------------------------------------|
B|------7------7------7-----5-------5------5-----3-----3------3--------------------------|
G|--------0------0------------5-------5------------0-----0-------------------------------|
D|----------7------7------------5-------5------------4-----4-----------------------------|
G|---0-------------------5--------------------5------------------------------------------|
D|---------------------------------------------------------------------------------------|


D|---------------------------------------------------------------------------------------|
B|------5------5------5------1-1---1--1p0------1-----------------------------------------|
G|--------5------5-----------0-0---0----2p0----0-----------------------------------------|
D|----------5------5---------2-2---2------2p0--2-(strum and let ring)--------------------|
G|---5-------------------5---2-2---2-----------2-----------------------------------------|
D|---------------------------------------------------------------------------------------|




[Outro]

D|---------------------------------------------------------------------------------------|
B|------12-------12-------12-----10-------10-------10----8------8------8-----------------|
G|---------0--------0---------------0--------0-------------0------0----------------------|
D|-----------12-------12--------------10-------10------------9------9--------------------|
G|---0------------------------0-----------------------0----------------------------------|
D|---------------------------------------------------------------------------------------|


D|---------------------------------------------------------------------------------------|
B|------7------7------7-----5-------5------5-----3-----3------3--------------------------|
G|--------0------0------------0-------0------------0-----0-------------------------------|
D|----------7------7------------5-------5------------3-----3-----------------------------|
G|---0-------------------0--------------------0------------------------------------------|
D|---------------------------------------------------------------------------------------|


D|--------------------------0-------------------------------------------------------------|
B|-----1------1------1------0-------------------------------------------------------------|
G|-------0------0-----------0-------------------------------------------------------------|
D|---------1------1---------0-(strum and let ring-----------------------------------------|
G|---0----------------------0-------------------------------------------------------------|
D|--------------------------0-------------------------------------------------------------|



************************************
| p   Pull-off
************************************
Suggest correction
Give kudos to tab author, rate the tab!
1 2 3 4 5
comments
print report bad tab
guest
You may want to rate the tab now too:
select rating
Wanna post a correction for this tab? Suggest correction