Oops, an error
Loading. Please wait.

This Is Yesterday Bass Tab

version 1
version 1

Whole song

Interactive

679 views 1 this week
no commentswrite comment
1 2 3 4 5
1 last vote to show rating
add to favorites
launch autoscroll
font size
0
reset
guitar tuner
Autoscroll
slow
fast
+/-
esc
set tempo
stop
Help us to improve Ultimate-Guitar.com Take our survey!
×
Author
Difficulty
novice
This is so easy it's not worth bothering,
but no one else has so I will.

Intro

G-----------------|
D-----------------|
A-----------------| x7
E-3-3-3-3-3-3-3-3-|

G--------------|
D--------------|
A-5-5--5-5-0-5-|
E--------------|

Verse

G-----------------|
D-----------------|
A-----------------| x4
E-3-3-3-3-3-3-3-3-|

G-----------------|
D-----------------|
A-3-3-3-3-3-3-3-3-| x4
E-----------------|

G-----------------|
D-----------------|
A-----------------| x4
E-3-3-3-3-3-3-3-3-|


G-----------------|
D-----------------|
A-3-3-3-3-3-3-3-3-| x3
E-----------------|

G--------------|
D--------------|
A-5-5--5-5-0-5-|
E--------------|

Chorus (whole thing x2)

G---------------------------------|
D---------------------------------|
A---------------------------------|
E-3-3-3-3-3-3-3-3-3-3-3-3-3-3-3-0-|

G---------------------------------|
D---------------------------------|
A---------------------------------|
E-3-3-3-3-3-3-3-3-3-3-3-3-3-3-3-5-|

G---------------------------------|
D---------------------------------|
A-3-3-3-3-3-3-3-3-3-3-3-3-3-3-3---| x2 first time, 2nd time x1
E-------------------------------0-|

then

G--------------|
D--------------|
A-5-5--5-5-0-5-|
E--------------|

Verse
Chorus

Solo

G-----------------|
D-----------------|
A-----------------| x4
E-3-3-3-3-3-3-3-3-|

G-----------------|
D-----------------|
A-3-3-3-3-3-3-3-3-| x4
E-----------------|

Chorus

End on E-3-
Suggest correction
Give kudos to tab author, rate the tab!
1 2 3 4 5
comments
print report bad tab
guest
You may want to rate the tab now too:
select rating
Wanna post a correction for this tab? Suggest correction