Oops, an error
Loading. Please wait.

You Love Us Bass Tab

version 1
version 1

Whole song

Interactive

598 views 1 this week
no commentswrite comment
1 2 3 4 5
x 3
add to favorites
launch autoscroll
font size
0
reset
guitar tuner
Autoscroll
slow
fast
+/-
esc
set tempo
stop
Help us to improve Ultimate-Guitar.com Take our survey!
×
Manic Street Preachers
You Love Us 



Track 5 - Generation Terrorists 

Intro

    Riff A                
    G5                x4  
G-||-------------------||    
D-||-------------------||
A-||:-----------------:||
E-||--3-3-3-3-3-3-3-3--||

    Riff B
    F5    C5  G5                F5   C5    G5
G-|----------|-----------------|----------|-----------------|
D-|----------|-----------------|-3-3------|-----------------|
A-|-------3--|-----------------|-------3--|-----------------|
E-|-1-1------|-3-3-3-3-3-3-3-3-|----------|-3-3-3-3-3-3-3-3-|
    

Verse

Riff B x2

Pre-Chorus

Riff C
     D5     B5   C5              x4
G-||-----------|------------------||-----------------|
D-||-----------|------------------||-----------------|
A-||:-5-5---2--|-3-3-3-3-3-3-3-3-:||-3-3-3-3-3-3-3-3-|
E-||-----------|------------------||-----------------|

Chorus
     G5              x2  D5               x2   C5              x4
G-||------------------||-------------------||-------------------||
D-||------------------||-------------------||-------------------|| Repeat 
A-||:----------------:||:-5-5-5-5-5-5-5-5-:||:-3-3-3-3-3-3-3-3-:||  x2
E-||-3-3-3-3-3-3-3-3--||-------------------||-------------------||

Riff B

Verse 2: Repeat Verse 1

Pre-Chorus: Repeat Pre-Chorus

Chorus: Repeat Chorus

Solo

Riff E
     G5               x2  Bb5              x2  C5               x2
G-||-------------------||-------------------||-------------------||-
D-||-------------------||-------------------||-------------------||-
A-||:-----------------:||:-1-1-1-1-1-1-1-1-:||:-3-3-3-3-3-3-3-3-:||-
E-||--3-3-3-3-3-3-3-3--||-------------------||-------------------||-

     Eb5              x2  G5               x2  C5               x2
G-||-------------------||-------------------||-------------------||-
D-||--1-1-1-1-1-1-1-1--||-------------------||-------------------||-
A-||:-----------------:||:-----------------:||:-1-1-1-1-1-1-1-1-:||-
E-||-------------------||--3-3-3-3-3-3-3-3--||-------------------||-

     C5               x2  Eb5               G5
G-||-------------------||-----------------|---------|---------|
D-||-------------------||-----------------|---------|---------|
A-||:-3-3-3-3-3-3-3-3-:||-1-1-1-1-1-1-1-1-|---------|---------|
E-||-------------------||-----------------|-3-------|-(3)-----|

Chorus: Repeat Chorus

Riff B x2

Outro

 |  {-}  |   {-}  |

     Bb5   F5                    x4  C5   F5                    x2
G-||------------|-----------------||-----------|-----------------||-
D-||------------|-----------------||-----------|-----------------||-
A-||:-1---------|----------------:||:-3--------|----------------:||-
E-||-------1----|-1--3-3--1--3-3--||------1----|-1--3-3--1--3-3--||-

     C5    Bb5 F5                    x4  C5         Bb5  F5         G5
G-||----------------|-----------------||-----------|-----------|-----------|
D-||----------------|-----------------||-----------|-----------|-----------|
A-||:-3----1--------|----------------:||-3----3----|-1---------|-----------|
E-||-----------1----|-1--3-3--1--3-3--||-----------|------1----|-1---3--3--|

transcribed by Kevin Brown And Chris Stevens 
Suggest correction
Give kudos to tab author, rate the tab!
1 2 3 4 5
comments
print report bad tab
guest
You may want to rate the tab now too:
select rating
Wanna post a correction for this tab? Suggest correction