Oops, an error
Loading. Please wait.

You Love Us Tab

version 2
version 2

Intro

Whole song

Interactive

3,150 views 3 this week
no commentswrite comment
1 2 3 4 5
excellent!
x 1
add to favorites
launch autoscroll
font size
0
reset
how to read this tab
guitar tuner
Tab Pro tools
  • play this tab
  • loop segment
  • change instrument
  • show fretboard
  • metronome
Autoscroll
slow
fast
+/-
esc
set tempo
stop
Contributor
I havent seen any tabs for the solos in this song, which is suprising considering how 
they are.
Its quite hard but you'll get it with a lot of practice.
I added the chords, but if you want a real idea of where the changes are, there are
some good chord tabs out there.
Intro

Rhythm
E/D G x2
F C G

Lead (enters after E/D G chords)

e----------------------------|
B-7^-7^-5^-------------------|
G-5^-5^-3^-2^-2~--0-2-2^-2-0-|
D----------------------------|
A----------------------------|
E----------------------------|

e---3--------------3^----3^----3^----3^----|
B-----1---------3^-3^-3^-3^-3^-3^-3^-3^-3~-|
G-------2-2-0---5^----5^----5^----5^----5~-|
D-3-----------3----------------------------|
A------------------------------------------|
E------------------------------------------|

Verse 1

Rhythm
F C G x4
D C x4

Chorus 1

Rhythm + Lead
E/D G x2
D C
E/D G x2
D C

Pre-Verse

Rhythm
E/D G x2
F C G

Lead

e----------------------------|
B-7^-7^-5^-------------------|
G-5^-5^-3^-2^-2~--0-2-2^-2-0-|
D----------------------------|
A----------------------------|
E----------------------------|

e-5-6-5-3-5-3/1---1---------------|
B---------------3---3h1---1-3^-3~-|
G-----------------------2---------|
D---------------------------------|
A---------------------------------|
E---------------------------------|

Verse 2

Rhythm
F C G x4
D C x4

Chorus 2

Rhythm + Lead
E/D G x2
D C
E/D G x2
D C
E/D G x2
D C
E/D G x2
D C

Solo

Rhythm
G A# C D#

Lead

e-----------------------------------|
B-----------------------------------|
G-----------------------------------|
D-----------------------------------|
A-----------------------------------|
E///////////////////////////////////    <-pickslide

e----------------------------|
B----------------------------|
G-5^-5^-5^-5^-5^-5^-5^-3---3-|
D------------------------5---|
A----------------------------|
E----------------------------|

e-------------------------|
B-------------------------|
G-5^-5^-5^-5^-5^-5^-5^-5^-|
D-------------------------|
A-------------------------|
E-------------------------|

e-----------------------------|
B----6----6----6----6---------|
G-5^---5^---5^---5^---5^--10^-|
D-----------------------------|
A-----------------------------|
E-----------------------------|

e------------------------------------------------------------|
B-8h11p8--------8h11p8--------8p11p8--------8h11p8--------8/-|
G--------10-10^--------10-10^--------10-10^--------10-10^----|
D------------------------------------------------------------|
A------------------------------------------------------------|
E------------------------------------------------------------|

e------------------------------6----6-|
B-----------------3h6p3---3-6^---6~---|
G-----------3-3h5-------5-------------|
D-----3-3h5---------------------------|
A-3h5---------------------------------|
E-------------------------------------|

e-5h6p5p3h5p3---3-----------------------------------------------------|
B-------------6---6p3---3---------------------------------------------|
G---------------------5---5/2h3p2p0-2p0-------------------3-----3-----|
D---------------------------------------3p0-3-0---3-3-3/5---3/5---3/5-|
A---------------------------------------------------------------------|
E---------------------------------------------------------------------|

e--------------------------------------|
B-----------------11-----11------------|
G-3-x-5^--x-x-10^----10^----10-10-10^/-|
D--------------------------------------|
A--------------------------------------|
E--------------------------------------|

Chorus 3

Rhythm + Lead
E/D G x2
D C
E/D G x2
D C
E/D G x2
D C
E/D G x2
D C

Outro

Rhythm
F C G x4

e----------------------------------|
B-8----8----8-8----8----8----8-8---|
G---10^--10^----10^--10^--10^------|
D--------------------------------x-|
A--------------------------------x-|
E----------------------------------|

e-------------------|
B-------------------|
G-------------------|
D-------0-3^-0-3-3--|
A-----1-------------|
E-1-3---------------|

e----------------------------------------------------|
B-5^-5^-3^-12^---------------------13p12-------------|
G-7^-7^-5^-14--14~-12-14-14^-14-12-------14p12-14-12-|
D----------------------------------------------------|
A----------------------------------------------------|
E----------------------------------------------------|

e-------------------------------------------------------------------|
B-5^-5^-3^-12^---------------------13p12----------------15----------|
G-7^-7^-5^-14--14~-12-14-14^-14-12-------14p12-14-12-14----10-10^~/-|
D-------------------------------------------------------------------|
A-------------------------------------------------------------------|
E-------------------------------------------------------------------|

That's where the single version of this song finishes, but there is an extended solo in 
version on Generation Terrorists, so I've tabbed
the lead part for that as well, although I'm not sure of the chords.

e---------------------------|
B---------------------------|
G-------3-x-------3-------3-|
D---------x-----------------|
A-3h4h5---x-3h4h5---3h4h5---|
E---------------------------|

e---------------------|
B---------------------|
G---------------------|
D-3-5-5-x-3-5-5-5-5-5-|
A-3-5-5-x-3-5-5-5-5-5-|
E---------------------|

e---------------------------|
B---------------------------|
G-------3-x-------3-------3-|
D---------x-----------------|
A-3h4h5---x-3h4h5---3h4h5---|
E---------------------------|

e---------------------|
B---------------------|
G---------------------|
D-3-5-5-x-3-5-5-5-5/x-|
A-3-5-5-x-3-5-5-5-5/x-|
E---------------------|

e---------------------------|
B---------------------------|
G-------3-x-------3-------3-|
D---------x-----------------|
A-3h4h5---x-3h4h5---3h4h5---|
E---------------------------|

e---------------------|
B---------------------|
G---------------------|
D-3-5-5-x-3-5-5-5-5-5-|
A-3-5-5-x-3-5-5-5-5-5-|
E---------------------|

e---------------------------|
B---------------------------|
G-------3-x-------3-------3-|
D---------x-----------------|
A-3h4h5---x-3h4h5---3h4h5---|
E---------------------------|

e---------------------|
B---------------------|
G---------------------|
D-3-5-5-x-3-5-5-5-5-5-|
A-3-5-5-x-3-5-5-5-5-5-|
E---------------------|

e-------------------------|
B-------3-----------------|
G---------5p3---3---------|
D-------------5---5p3-----|
A-3h4h5---------------5p3-|
E-------------------------|

e---------------------|
B---------------------|
G---------------------|
D-3-5-5-x-3-5-5-5-5-5-|
A-3-5-5-x-3-5-5-5-5-5-|
E---------------------|

e--------------------------|
B--------------------------|
G--------3-5p3---3---------|
D--------------5---5p3-----|
A-3h4h5----------------5p3-|
E--------------------------|

e---------------------|
B---------------------|
G---------------------|
D-3-5-5-x-3-5-5-5-5-5-|
A-3-5-5-x-3-5-5-5-5-5-|
E---------------------|

e--------------------------|
B--------------------------|
G--------3-5p3---3---------|
D--------------5---5p3-----|
A-3h4h5----------------5p3-|
E--------------------------|

e---------------------|
B---------------------|
G---------------------|
D-3-5-5-x-3-5-5-5-5-5-|
A-3-5-5-x-3-5-5-5-5-5-|
E---------------------|

e------------------------------------------------------|
B-----8-11p8-------8-11p8-------8-11p8-------8-11p8----|
G-10^--------10-10^-------10-10^-------10-10^-------10-|
D------------------------------------------------------|
A------------------------------------------------------|
E------------------------------------------------------|

e-10h11-10h11p10-8----8------------------------------------|
B------------------11---11p10p8h10p8-----------------------|
G------------------------------------10p8h10p9p8/7h9/7p5p0-|
D----------------------------------------------------------|
A----------------------------------------------------------|
E----------------------------------------------------------|

e---------------------------------------|
B---------------------------------------|
G-3^---3h5p3-5^-3-5p3h5-5~-3^-5p3h5-5^~-|
D----5----------------------------------|
A---------------------------------------|
E---------------------------------------|

e-------------------------------------------------------|
B----------------------------------------8-8-8-11-11-11-|
G-------------------------7-7-7-10-10-10----------------|
D----------8-8-8-10-10-10-------------------------------|
A-10-10-10----------------------------------------------|
E-------------------------------------------------------|

e-8-8-8-10h13-13^-13p10-13-13^-13-10-13~-|
B----------------------------------------|
G----------------------------------------|
D----------------------------------------|
A----------------------------------------|
E----------------------------------------|

e-------------------------------------------|
B-13p11--------------x-13p11--------------x-|
G-------12p10------x-x-------12p10------x-x-|
D-------------12-x-x-x-------------12-x-x-x-|
A-------------------------------------------|
E-------------------------------------------|

e-----------------------------------------|
B-13p11--------------13p11----------------|
G-------12p10------x-------12p10----------|
D-------------12-x-x-------------12p10----|
A--------------------------------------13-|
E-----------------------------------------|

e-18p15----------------------------------------|
B-------18p15h18p15----15h18p15----------------|
G-------------------17----------17p15h17p15----|
D-------------------------------------------17-|
A----------------------------------------------|
E----------------------------------------------|

e----------------------------------------------|
B----------------------------------------------|
G-15h17p15-------------------------------------|
D----------17p15h17p15----15h17p15-------------|
A----------------------17----------17p15h17p15-|
E----------------------------------------------|

e--------------------------------------------------------------------------|
B-18-18-18-18^-18-18-------------------------------------------------------|
G--------------------15h18p15----15h18p15----------------------------------|
D-----------------------------17----------17p15----15h17p15----------------|
A-----------------------------------------------17----------17p15----15h17-|
E-----------------------------------------------------------------18-------|

e-----------------------------------------------------|
B-----------------------------------------------------|
G-----------------------------------------------------|
D----------15-------------15-------------15-----------|
A-15h16h17----17-15h16h17----17-15h16h17----17p15-----|
E-------------------------------------------------15~-|

Oh yeah, and this took forever. Long live the Manics!
comments
We did not receive enough feedback on this tab! Please rate:
print report bad tab
1 2 3 4 5
I want to post or [tab]
guest
You may want to rate the tab now too:
select rating
Please do not post tabs as comments. Select "correction" instead!