Oops, an error
Loading. Please wait.

You Stole The Sun From My Heart Tab

version 1
version 1

Whole song

Interactive

5,347 views 6 this week
1 commentread comment
1 2 3 4 5
please rate
add to favorites
launch autoscroll
font size
0
reset
how to read this tab
guitar tuner
Autoscroll
slow
fast
+/-
esc
set tempo
stop
Help us to improve Ultimate-Guitar.com Take our survey!
×
Îò: for www.ultimate-guitar.com 
Êîìó: 
Òåìà: New Tabs
Äàòà: 9 èþíÿ 2000 ã. 17:03

ManicStreetPreachers,YouStoletheSunFromMyHeart.
 Tabbed by Scarecrow,Brainwashfamily@hotmail.com.
  


intro: (second half of intro is also played allthe way through the verse)



1)

e----0---0--|-------------|-----0----0--|--------

B-----------|-----4---4---|-------------|---4-454-2-0 

G--1---1---1|---2---2---2-|---1---1----1|--2------

D-----------|-------------|-------------|--------

A-----------|-0-----------|-------------|0-------

E-0---------|-------------|-0-----------|---------



2)

e-----0--0--|----------|----0---0-|------------

B-----------|----4---4-|----------|----4--4----

G---1--1--1-|---2--2--2|---1--1--1|---2--2--2--

D-----------|----------|----------|------------

A-----------|-0--------|----------|-0-----------

E-0---------|----------|-0--------|-------------





verse1:

Drinking- water to stay thin

Or is it to purify, i love you all the same

But there's no-no real truce with my fury,

You don't have to believe me, I love you all the same



verse2:

You have-broken through my armour, and i don't have an answer i, I love you all the same

I paint-the things i wanna see, but it don't come easy, I love you all the same



verse3: 

thinki'm-lost among the undergrowth

so much so i woke up i

i love you all the same





verse4:

I have-I've got to stop smiling, it gives the wrong impression, i love you all the same... 

     Ritenuto                   E

chorus:But you stole the sun from my heart

        B                             E

       You stole the sun from my heart,

             Cism                 Gism  A

       Ooooh you stole the sun from my heart

              B                          E

       You stole the sun from, You stole the sun from

        Cism         Gism       Bm            Fism

       Aaaaaah...

       F-slide to-E



chords:           Playing order:intro

B:      224442                  verse1 

E:      022100                  chorus

Cism:   446654                  verse2 

Gism:   466444                  chorus 

A:      577655                  verse3

Bm:     224432                  chorus        

Fism:   244222                  verse4

F:      133211    



This is one of the 'newer' Manics' songs. To my regret i'm not (yet) good enough to tab their old work :o( But when i get to it, you'll be the first to know!!!     

 
:: Ultimate Guitar Archive :: 
http://www.ultimate-guitar.com 

Suggest correction
Give kudos to tab author, rate the tab!
1 2 3 4 5
comments
print report bad tab
1 comment total.
0 reply
TJ1991 1,799 wrote on January 2 2007, 06:19 am

it would be so much easier to play like james does:
e------------------------------
B------------------------------
G------------------------------
D-----14--14-------13--13--13--
A---11--11--11-0-12--12--12--12
E-12---------------------------

e----------------------------------
B----------------------------------
G----------------------------------
D-----14--14-------13-13h14p13-11--
A---11--11--11-0-12--------------12
E-12-------------------------------

guest
You may want to rate the tab now too:
select rating
Please do not post tabs as comments. Select "correction" instead!