Oops, an error
Loading. Please wait.

Your Love Alone Is Not Enough Tab

version 1
version 1

Whole song

Interactive

36,934 views 48 this week
3 commentsread comments
1 2 3 4 5
excellent!
x 20
add to favorites
launch autoscroll
font size
0
reset
how to read this tab
guitar tuner
Autoscroll
slow
fast
+/-
esc
set tempo
stop
Help us to improve Ultimate-Guitar.com Take our survey!
×
Author
indie_nation 3,362
Artist: Manic Street Preachers
Song: Your love alone is not enough
Tunning: Standard
Tabbed By: INDIE NATION


- When switching from Em To G james plays it like this most of the time

e-0--0-0--0-----3--|
b-0--0-0--0-----3--|
G-0--0-0--0--0--0--|
D-2--2-2--2--0--0--|
A-2--2-2--2--x--2--|
E-0--0-0--0--2--3--|

- After some of the Em chords james plays this little riff

e-0--2-0----------|
b-0-------3-2-----|
G-----------------|
D-----------------|
A-----------------|
E-----------------|

D    A      Em
Your love alone
            D	      A	          Em
Is not enough, not enough, not enough
D    A         Em
When times get tough
           D            A                Em
They get tough, they get tough, they get tough


G
Trade all your heroes
         D	       A	      Em
In for ghosts, in for ghosts, in for ghosts
G
They're always the ones that
	  D	 	A	          Em
Love you most, love you most, love you most

D  A    Em

D       A      Em
Your love alone
	  D	      A	           Em
Is not enough, not enough, not enough
D     A          Em
It's what you felt
                D	      A              Em
It's what you said, what you said, what you said


G
You said the sky would
	D	      A	          Em
Fall on you, fall on you, fall on you
G				      D
Through all the pain your eyes stayed blue
	     A	       Em
They stayed blue, baby blue

D   A     Em

Riff 1
E|------------\7—7----5----3----5----3---2---0--|
B|------------\7-7----5----3----5----3---2---0--|
G|----------------------------------------------|


A				Em
But your love alone won't save the world
G				D
You'll know the secret of the universe

Riff 1

A				Em
Despite it all you made it worse
G
It left you lonely, it left you cold

D   A         Em
You stole the sun
                 D		A	        Em
Straight from my heart, from my heart, from my heart
D    A     Em
With no excuses
	    D	       A	    Em
Just fell apart, fell apart, fell apart

G			       D
No, you won't make a mess of me
        A	    Em
Mess of me, mess of me
G			         D
For you're as blind as a man can be
	A	    Em
Man can be, man can be

D    A   Em

Riff 1

A			      Em
I could've seen for miles and miles
G		          D
I could've made you feel alive

Riff 1

A		           Em
I could've placed us in exile
			       G
(I could've written all your lines)
I could've shown you
(I could've shown you)
How to cry

D  A  Em - Your love alone
D  A  Em - Is not enough
D  A  Em - Your love alone
D  A  Em - Is not enough

Riff 1

SOLO:

E|---------------------------------------------------------------------------|
B|---------------------------------------------------------------------------|
G|--------2\6~---6---4---2---4~----------2---0----\4--4~-----7---4------4-4~-|
D|--------------------------------------------------------------------7------|
A|---------------------------------------------------------------------------|
E|---------------------------------------------------------------------------|

Riff 1

A				Em
La la la la, la la la la
G
I could've shown you
Shown you how to cry

D   A   Em - Your love alone
D   A   Em - Is not enough
D   A   Em - Your love alone

D   A   Em
Suggest correction new What's this?
You can suggest a correction to this tab. Community and Mods will review your correction and vote to approve or reject it.
comments
print report bad tab
3 comments total.
+3 reply
TJ1991 3,722 wrote on May 19 2007, 08:18 am

The fill should be
e-0--2-0----------|
b-0-------3-0-----|
G-----------------|
D-----------------|
A-----------------|
E-----------------|

But the rest is perfect.

+3 reply
chaz mac 67 wrote on September 13 2007, 02:25 pm

Great stuff! I agree about the fill though :)

0 reply
warhero430 26 wrote on January 27 2015, 07:35 pm

Pretty incomplete tab. Chords sound good, but the tabs need work.

You're also forgetting the part just before where where they sing "is not enough, not enough, not enough" etc.

D A Em
"Your love alone"

"Is not enough, not enough, not enough..."
D A Em
e---------------2-----------------------------0---2--0----------|
b---------------3------------2----------------0--------3-0-----|
G---------------2------------2----------0----------------------|
D---------------0------------2----------2--------------------|
A-----------0----------------0----------2---------------------|
E---0---3-------------------------------0---------------------|

"Riff 1" A
e-------------------------------------|
b--10---8--7--8--7--5--3--2-----------|
G---9---7--6--7--6--4--2--2-----------|
D-------------------------2-----------|
A-------------------------0-----------|
E-------------------------------------|

The solo sounds better played on D, especially because the slide goes from D# (Not from A) to Db.

SOLO
E|----------------------------------------------------|
B|----------------------------------------------------|
G|----------------------------------------------------|
D|-1\11~--11-9-7-9~~---9-7-5\9~~----9-12-9------------|
A|-----------------------------------------12\14/12---|
E|----------------------------------------------------|

guest
You may want to rate the tab now too:
select rating
Please do not post tabs as comments. Select "correction" instead!