Oops, an error
Loading. Please wait.

Statte Zitta Tab

46 views 3 this week
no commentswrite comment
1 2 3 4 5
3 more votes to show rating
add to favorites
launch autoscroll
font size
0
reset
how to read this tab
guitar tuner
Autoscroll
slow
fast
+/-
esc
set tempo
stop
Help us to improve Ultimate-Guitar.com Take our survey!
×
Author
[Solo]

e|----------------------------------------------------------------------------------------|
b|--5--5--7--8--7--5--------------5--5--7--8--7--5-----5--5--7--8--7--5-------------------|
G|--------------------7--7--6--4--------------------7--------------------7--7--6--4--6----|
D|----------------------------------------------------------------------------------------|
A|----------------------------------------------------------------------------------------|
E|----------------------------------------------------------------------------------------|
 
e|------------------------------------------------------------------------------------------------|
b|--4--4--4-----4--5--8--7-----5--5--7--8--7--5-----5--5--7--8--7--5------------------------------|
G|-----------6--------------7--------------------7--------------------7--7--6--4--7--6--7--6--4---|
D|------------------------------------------------------------------------------------------------|
A|------------------------------------------------------------------------------------------------|
E|------------------------------------------------------------------------------------------------|

Rasa Beek.
Suggest correction
Give kudos to tab author, rate the tab!
1 2 3 4 5
comments
print report bad tab
guest
You may want to rate the tab now too:
select rating
Wanna post a correction for this tab? Suggest correction