Oops, an error
Loading. Please wait.

Reflections Of You Bass Tab

40 views 1 this week
no commentswrite comment
1 2 3 4 5
please rate
add to favorites
launch autoscroll
font size
0
reset
guitar tuner
Autoscroll
slow
fast
+/-
esc
set tempo
stop
Help us to improve Ultimate-Guitar.com Take our survey!
×
Author
Difficulty
intermediate
Manntis - Reflections of You

tuning (low to high) - D A D G

Riff 1 x6
|-------------------------------------------------------------|
|-------------------------------------------------------------|
|-0h5-0h5h7--8p7-0h5-0h5h7--8p7-0h5-0h5h6--7p6-0h5-0h5h6--7p6-|
|-------------------------------------------------------------|

Riff 2 x1
|-7--------7--------5--------4--------7--------7--------5--------4--h5--|
|-----------------------------------------------------------------------|
|----5-555----5-555----5-555----5-555----5-555----5-555----5-555--------|
|-----------------------------------------------------------------------|

Riff 3 x1
|------------------------------------------------------------------|
|----------------------------------------------------6-6-6-6-6-6-6-|
|-------------6-6--5-5--6-8-8-8-8-8-8-8--6-6--5-5--6---------------|
|-3-x16-6-x16------------------------------------------------------|

Fill 1 x1
|-----------------------------------------------------------------------------|
|-----------------------------------------------------------------------------|
|-------------8-8-8-8-8-8-8-8-8-8-8-8-8-8-8-8-6-6-6-6-6-6-6-6-5-5-6-6-6-6-6-6-|
|-3-x16-6-x16-----------------------------------------------------------------|

Riff 3 x1

Fill 2 x1
|-----------------------------------------|
|-----------------------------------------|
|-------------7--7--6-7--7--6-5--5--6--6--|
|-3-x16-6-x16-----------------------------|

Riff 4 x4
|---------------------------------------------------------|
|---------------------------------------------------------|
|-----5h75h78p7-----5h75h78p7-----5h65h67p6-----5h65h67p6-|
|-00------------00------------00------------00------------|

hold open D for like 10 seconds

Riff 5 x4
|-------------------------------------------------------------------|
|-------------------------------------------------------------------|
|-10--1010101010101010101010101010-12--1212121212121212121212121212-|
|-------------------------------------------------------------------|

Riff 6 x2
|-------7-----------------------7--------8--|
|-------------------------------------------|
|-5-5-5----5-5-5----------5-5-5----5-5-5----|
|----------------XXXXXXXX-------------------|

Riff 7 x1
|-----7------7------7------7------7------7------7-------|
|-------------------------------------------------------|
|-------------------------------------------------------|
|-0-0----0-0----0-0----0-0----0-0----0-0----0-0----0-0--|
Suggest correction
What's this?
You can suggest a correction to this tab. Community and Mods will review your correction and vote to approve or reject it.
comments
We did not receive enough feedback on this tab! Please rate:
print report bad tab
1 2 3 4 5
guest
You may want to rate the tab now too:
select rating
Please do not post tabs as comments. Select "correction" instead!