Oops, an error
Loading. Please wait.

King Kong Five Bass Tab

152 views 1 this week
no commentswrite comment
1 2 3 4 5
3 more votes to show rating
add to favorites
launch autoscroll
font size
0
reset
guitar tuner
Autoscroll
slow
fast
+/-
esc
set tempo
stop
Help us to improve Ultimate-Guitar.com Take our survey!
×
1ª parte
G|----5-3-----3--------|
D|--------3-4----5-4-3-|
A|--3------------------|
E|---------------------|


2ª parte
G|------------3--------|
D|--------3-4----5-4-3-|   4
A|--3------------------| veces
E|---------------------|

G|-------------------3---------|
D|---------------3-4----5-4-3--|   2
A|--3-------1-3----------------| veces
E|------3-3--------------------|

G|------------3--------|
D|--------3-4----5-4-3-|   2
A|--3------------------| veces
E|---------------------|


pre-puente
G|----------------|
D|----------------|  1
A|--6-6----3-3----| vez
E|------6------3--|


puente
G|-----------------------|
D|-----------------3-3---| despues de hacer este riff muchas veces,
A|---3-3--6-6------------| se repite en una parte que canta solo
E|-------------6-6-------|


repite lo anterior
G|-------------------3---------|
D|---------------3-4----5-4-3--|
A|--3-------1-3----------------|
E|------3-3--------------------|

G|------------3--------|
D|--------3-4----5-4-3-|   4
A|--3------------------| veces
E|---------------------|


final
G|---------------------|
D|---------------------| primero repite esto
A|----3----------------| varias veces
E|---------6-6-5-6-----|

G|----------------------|
D|-----------------3-3--| finalmente, hace esto hasta
A|--3-3--6-6------------| terminar la cancion
E|------------6-6-------|
Suggest correction
Give kudos to tab author, rate the tab!
1 2 3 4 5
comments
print report bad tab
guest
You may want to rate the tab now too:
select rating
Wanna post a correction for this tab? Suggest correction