Oops, an error
Loading. Please wait.

Tanguillos De La Defensa Tab

130 views 1 this week
no commentswrite comment
1 2 3 4 5
3 more votes to show rating
add to favorites
launch autoscroll
font size
0
reset
how to read this tab
guitar tuner
Autoscroll
slow
fast
+/-
esc
set tempo
stop
Help us to improve Ultimate-Guitar.com Take our survey!
×
Para empezar golpearemos una sola vez el RE mayor(1 vez)
el MI mayor(1vez) y LA mayor(1vez)


1--0-2-0-2-4-2-0---0-2-0--
2-3---3---------2-3-----3-
3-------------------------
4-------------------------
5-------------------------
6-------------------------


1-------0-----0-0-0--0-2--
2-0-2-3---3-2-------3-----
3-------------------------
4-------------------------
5-------------------------
6-------------------------


1--0-2-4-2-0---0-2-0-4-2-0
2-3---------2-3-----------
3-------------------------
4-------------------------
5-------------------------
6-------------------------


1-------------------------
2-3-2-0-------------------
3------2------------------
4-------------------------
5-------------------------
6-------------------------

Seguiremos golpeando una sola vez el RE mayor(1 vez)
el MI mayor( vez) y LA mayor(1 vez)
y seguimos con el ritmo del tanguillo
con el sol7,DO Mayor,mi7 y LA menor.
A continuación le damos al aire
a la primera cuerda y rasgueamos el la menor.

1-0--0------------------------------------------
2----1--3-2-3--1-0-1--0-------------------------
3----2-----------------2-0-2-4?2-0----0-2-0-----
4----3------------------------------3-------3-2-
5----0------------------------------------------
6----0------------------------------------------


1--------------------------------------
2-----0--3-1-0-3-3-----0-3-1-0---------
3---1----------------1---------2-0-----
4-2----------------2---------------3-2-
5--------------------------------------
6--------------------------------------

Aquí cuando terminemos este tab rasgueamos el la menor

1-------------------------------------O
2-----0--3-1-0-3-3----3-3-3--2-3------1
3---1---------------------------------3
4-2-----------------------------------2
5-------------------------------------0
6-------------------------------------0


1-000---0?-55--4-2-5--4-2-0------------0-2-4-2-0---0-4-2-0----0-2-0---
2----2------------------------3---333------------3----------3------3-2
3---------------------------------------------------------------------
4---------------------------------------------------------------------
5---------------------------------------------------------------------
6---------------------------------------------------------------------

Aquí terminaremos con el pulgar al aire
 en la sexta cuerda y un MI mayor rasgueado

1-000---0?-55--333--2--------1---2-4-5---555--4-2-0---555---4------0--
2-----2----------------------3-------------------------------------0--
3----------------------------2-------------------------------------1--
4----------------------------0-------------------------------------3--
5----------------------------0-------------------------------------2--
6----------------------------0------------------------------0------0--

1-000-1-0-----------0--------0-------------------------------------0--
2---------3--2--33---3-1-----1--111--3-1-0-------------------------0--
3----------------------------3-------------22-0--------------------1--
4----------------------------2-------------------33-2--------------3--
5----------------------------0-------------------------------------2--
6----------------------------0-------------------------------------0?


1-000-1-0----------0---------0--------------------------0----------0--
2---------3--2-33---3-1------1------0-1-0---1-3-1-3----------------0--
3----------------------------3--222--------------------------------1--
4----------------------------2-------------------------------------3--
5----------------------------0-------------------------------------2--
6----------------------------0--------------------------0----------0--


1----0----------0-----------0----------0---------4444--5---22-0------
2--2---3-2-0-2----2------2-----3-2-0-2---3----3------------------3---
3--------------------------------------------------------------------
4--------------------------------------------------------------------
5--------------------------------------------------------------------
6--------------------------------------------------------------------


1--2222--4--00----------0---------0----------0-------------0-2-----1--
2--------------3-2----2---3-2---2----3-2-0-2---2---2--222-3--------3--
3------------------------------------------------------------------2--
4------------------------------------------------------------------0--
5------------------------------------------------------------------0--
6------------------------------------------------------------------0?


1-2--222?4-?2-2-0---2-4---2-2-0---2-4--2-2-0------
2-------------------------------------------------
3-------------------------------------------------
4-------------------------------------------------
5-------------------------------------------------
6-------------------------------------------------


1-2--222?4-?2-2-0---0-2---0-0------------0--------
2-----------------------------3------3------3-3-2-
3-------------------------------------------------
4-------------------------------------------------
5-------------------------------------------------
6-------------------------------------------------

Seguiremos golpeando una sola vez el RE mayor(1 vez)
,el MI mayor( vez) y LA mayor(1 vez) y seguimos
 con el ritmo del tanguillo con el sol7,DO Mayor,mi7
y LA menor
Suggest correction
Give kudos to tab author, rate the tab!
1 2 3 4 5
comments
print report bad tab
guest
You may want to rate the tab now too:
select rating
Wanna post a correction for this tab? Suggest correction