Oops, an error
Loading. Please wait.

Tanto Amor Tab

11 views 1 this week
no commentswrite comment
1 2 3 4 5
3 more votes to show rating
add to favorites
launch autoscroll
font size
0
reset
how to read this tab
guitar tuner
Autoscroll
slow
fast
+/-
esc
set tempo
stop
Help us to improve Ultimate-Guitar.com Take our survey!
×
TANTO AMOR


    Gtr 1

  D            G                 A                G
e|---------10------|------------------9|-----------------|
B|-10---------10-12|-------------------|---------------12|
G|-----------------|-------------------|-----------------|
D|-----------------|-------------------|-----------------|
A|-----------------|-------------------|-----------------|
E|-----------------|-------------------|-----------------|
 |
 |   Gtr 2
 |
 |
e|-----------------|-------------------|-----------------|
B|-----------------|-------------------|-----------------|
G|-----------------|-------------------|-----------------|
D|-4-5-4-7-5-4-----|-4-5-4-7--5-4-4-9-7|--7---5---4------|
A|-------------7-5-|-------------7-----|-------------7---|
E|-----------------|-------------------|-----------------|


    Gtr 1

                  D
e|------------------|
B|----------------10|
G|------------------|
D|------------------|
A|------------------|
E|------------------|
 |
 |   Gtr 2
 |
 |
e|------------------|
B|------------------|
G|------------------|
D|--5---4-----------|
A|---------7---5----|
E|------------------|


    Gtr 1

  D                G                  A          G
e|---10---------------|12-------------------|14----------|
B|-10--------10-------|--------12-----------|------14/---|
G|----------------11--|---------------12----|------------|
D|--------------------|---------------------|------------|
A|--------------------|---------------------|------------|
E|--------------------|---------------------|------------|
 |
 |   Gtr 2
 |
 |
e|----2-3-2-5--3-2-0--|-2-3-2-5--3-2-0-0-2-5|-5-3-2-0----|
B|-------------------3|---------------------|------------|
G|--------------------|---------------------|------------|
D|--------------------|---------------------|------------|
A|--------------------|---------------------|------------|
E|--------------------|---------------------|------------|


    Gtr 1

           D
e|-12--------|10--------|
B|-------12/-|------10--|
G|-----------|----------|
D|-----------|----------|
A|-----------|----------|
E|-----------|----------|
 |
 |   Gtr 2
 |
 |
e|-3-2-0-----|--2-------|
B|-------3---|------2/3-|
G|-----------|-2--2-----|
D|-----------|----------|
A|-----------|----------|
E|-----------|----------|

                     Bm
  Aquel bello despertar             al encontrarte
                      e|------------------------|
                      B|2/3-3/5-5/3-3/2-2-2/3---|
                      G|----------------------3-|

       F#
A [ch]E[/ch] lado       y
        e|3-3/2-2-|
        B|--------|
        G|--------|


                    G
 nuestras almas fundidas       en un
                       e|0-2-3-5-6-|
                       B|----------|
                       G|----------|


F#           Bm              F#7
descuidado abrazo.
                e|6/7-7/6---------|
                B|--------8/7-----|
                G|-----------7/6--|
                D|--------------8-|


                    Bm                     F#
  Te senti mia y lejana, tuve miedo de perderte
                       G          F#        Bm     A7
  Desde aquel momento supe no dejare de quererte.


  Coro:

      D      A             D
  Amame como yo te estoy amando
                                 Em    A
  Quiereme siempre te estare esperando
       Bm                      F#
  fundete en mis brazos tan ardientes
        Em           A       D      A
  Alégrate con mis mañanas alegres.         [2x]


    Gtr 1

  D                G                A
e|---------10------|--------------------9|
B|-10-----------10-|12-------------------|
G|-----------------|---------------------|
D|-----------------|---------------------|
A|-----------------|---------------------|
E|-----------------|---------------------|
 |
 |   Gtr 2
 |
 |
e|-2-3-2-5--3-2-0--|-2-3-2-5--3-2-0-0-2-5|
B|----------------3|---------------------|
G------------------|---------------------|
D|-----------------|---------------------|
A|-----------------|---------------------|
E|-----------------|---------------------|


Gtr 1

        G        D
e|---------|---------|----------|
B|-------12|------10-|----------|
G|---------|---------|----------|
D|---------|---------|----------|
A|---------|---------|----------|
E|---------|---------|----------|
 |
 |   Gtr 2
 |
 |
e|-5-3-2-0-|-3-2-0---|--2-------|
B|---------|-------3-|------2/3-|
G|---------|---------|-2--2-----|
D|---------|---------|----------|
A|---------|---------|----------|
E|---------|---------|----------|

                   Bm
  Desde que te conocí             me duele
                   e|----------------------------|
                   B|2/3/2-2/5-5/3-3/2-2-2/3/2---|
                   G|--------------------------3-|

        F#
tu sufrimiento
            e|3-3/2-2-|
            B|--------|
            G|--------|

                       G
  Tanto amor que yo te di
                       e|-------0-2-|
                       B|-0-2-3-----|
                       G|-----------|

       F#
tanto amor       que yo
         e|-3-5-6-|
         B|-------|
         G|-------|


   Bm        F#7                    Bm
no tengo           escucha quiero decirte
       e|6/7-7/6---------|
       B|--------8/7-----|
       G|-----------7/6--|
       D|--------------8-|
                       F#
  algo que siento muy dentro
                          G              F#          Bm    A7
  Tendras que amarme con fuerza por todo lo que te quiero.

 Repite coro
Suggest correction
Give kudos to tab author, rate the tab!
1 2 3 4 5
comments
print report bad tab
guest
You may want to rate the tab now too:
select rating
Wanna post a correction for this tab? Suggest correction