Oops, an error
Loading. Please wait.

El Nene No Va A Misa Tab

16 views 1 this week
no commentswrite comment
1 2 3 4 5
3 more votes to show rating
add to favorites
launch autoscroll
font size
0
reset
how to read this tab
guitar tuner
×
Best way to learn
"El Nene No Va A Misa"
Autoscroll
slow
fast
+/-
esc
set tempo
stop
INTRO (punteo):
  Parte 1
e |------------------------------7-7-7------|
B |-4/7--7-----10-7/10--10-10-10-------7-7--|
G |--------9-7------------------------------|
D |-----------------------------------------|
A |-----------------------------------------|
E |-----------------------------------------|

  Parte 2
e |-----------------------------|
B |--4/7--7--------10--7--------|
G |----------9--7---------9-----|
D |-----------------------------|
A |-----------------------------|
E |-----------------------------|

  Parte 3
e |----------------|
B |--7-----10------|
G |-----9------7---|
D |----------------|
A |----------------|
E |----------------|


INTRO (acordes) (Varias veces cada quinta)
     B5    E5    B5    E5    B5    E5    F#5
e |------------------------------------------|
B |------------------------------------------|
G |--------9-----------9-----------9-----11--|
D |--9-----9-----9-----9-----9-----9-----11--|
A |--9-----7-----9-----7-----9-----7-----9---|
E |--7-----------7-----------7---------------|

SOLO:
e |---------------------------------------|
B |---------------------------------------|
G |--9--11--9-----------------------------|
D |------------12--10--12--10-9h11--11--9-|
A |---------------------------------------|
E |---------------------------------------|

|----------------------------------|
|----------------------------------|
|--9--11--9------------------------|
|------------12--10--12--10--------|
|----------------------------9-8-7-|
|----------------------------------|

RIFF 1 (Varias veces cada quinta)
     B5    E5    F#5
e |-------------------|
B |-------------------|
G |--4----------------|
D |--2-----2-----4----|
A |--2-----2-----4----|
E |--------0-----2----|

RIFF 2 (Varias veces cada quinta)
     E5    F#5   A5    G#5
e |-------------------------|
B |-------------------------|
G |-------------------------|
D |--2-----4-----7-----6----|
A |--2-----4-----7-----6----|
E |--0-----2-----5-----4----|

RIFF 3
     F#5   E5    A5    G#5
e |-------------------------|
B |-------------------------|
G |-------------------------|
D |--4-----2-----7-----6----|
A |--4-----2-----7-----6----|
E |--2-----0-----5-----4----|


ESTRUCTURA:
-----------
INTRO (Punteo)
   Parte 1 + Parte 2
   Parte 1 + Parte 3

INTRO (Acordes)

| Gtr1: INTRO (Acordes) |
| Gtr2: Solo            | [x2]

RIFF 1
El nene no va a misa pekado kapital
se gana la paliza de papa
RIFF 1
El nene no va a misa pekado kapital
kaera en el infierno y se kondenará
RIFF 1
El nene no va a misa pekado kapital
se gana la paliza de papa
RIFF 1
El nene no va a misa pekado kapital
kaera en el infierno y se kondenará

RIFF 2
El nene no va a misa por ke akello le da risa
RIFF 2
El kura habla para las paredes,
kutxitxean las mujeres
RIFF 2
Todos pasan la misa entera
hablando de la pelicula de ayer
RIFF 2
del fútbol o del traje que llevan,
de lo ke hiziero este o akel.

RIFF 1
El nene no va amisa da da dua
RIFF 1
El nene no va a misa aleluya
RIFF 1
El nene no va a misa da da da dua
RIFF 1
El nene no va a misa aleluya

RIFF 3 (x2)

RIFF 1
El nene no va a misa pekado kapital
se gana la paliza de papa
RIFF 1
El nene no va a misa pekado kapital
kaera en el infierno y se kondenará
RIFF 1
El nene no va a misa pekado kapital
se gana la paliza de papa
RIFF 1
El nene no va a misa pekado kapital
kaera en el infierno y se kondenará

RIFF 3 (x3) + B5
Suggest correction
Give kudos to tab author, rate the tab!
1 2 3 4 5
comments
print report bad tab
guest
You may want to rate the tab now too:
select rating
Wanna post a correction for this tab? Suggest correction