Oops, an error
Loading. Please wait.
8 views 1 this week
no commentswrite comment
1 2 3 4 5
3 more votes to show rating
add to favorites
launch autoscroll
font size
0
reset
how to read this tab
guitar tuner
×
Best way to learn
"Harto"
Autoscroll
slow
fast
+/-
esc
set tempo
stop
F

C G F  C G F

C           G
Harto de legalidad,
F
mezkindad de los legales.
C           G
Harto de tener ke hablar
F
kon unos nuevos modales.
C           G
Harto de moralidad
F
y de pekados mortales.
C           G
Harto de seguridad
F
a kargo de militares.

C       G      F
Harto, harto, harto
C       G      F
Harto, harto, harto.

   C              G              F
e||------------------------------------------------
B||------------------------------------------------
G||---------0--------------0------------0-2--3-2-0-
D||-2-2-3-2---3-2-0--0-2-3---2-0------3------------
A||------------------------------0--3--------------
E||------------------------------------------------

   C              G              F
e||-----------------------------------------------------
B||-----------------------------------------------------
G||---------0--------------0------------0-2--3-2-3-2-3-2
D||-2-2-3-2---3-2-0--0-2-3---2-0------3-----------------
A||------------------------------0--3-------------------
E||-----------------------------------------------------

C              G
Harto de este puto bar
F
no hay dos zervezas iguales.
C            G
Harto de tanto eskutxar
F
los kuarenta prinzipales.
C           G
Harto ya de arrojar
F
piedras kontra los kristales.
C              G
Y harto de ke me hables de:
F
Enfermedades mentales.

C       G      F
Harto, harto, harto
C       G      F
Harto, harto, harto
C       G      F
Harto, harto, harto
C                            G                           F
Harto, harto, harto, harto, harto, harto, harto, harto, harto.
C
me tenéis.
Suggest correction
Give kudos to tab author, rate the tab!
1 2 3 4 5
comments
print report bad tab
guest
You may want to rate the tab now too:
select rating
Wanna post a correction for this tab? Suggest correction