Oops, an error
Loading. Please wait.

No Komas Keso En Exzeso Bass Tab

14 views 1 this week
no commentswrite comment
1 2 3 4 5
3 more votes to show rating
add to favorites
launch autoscroll
font size
0
reset
guitar tuner
Autoscroll
slow
fast
+/-
esc
set tempo
stop
Help us to improve Ultimate-Guitar.com Take our survey!
×
1|---------------------------------------
2|---------5-5-5-5-3-3-3-3-5-5-5-5-------
3|-3-3-3-3-------------------------------
4|---------------------------------------


1|---------------------------------------
2|---------5-5-5-5-3-5-3-5---------------
3|-3-3-3-3------------------5--5--5------
4|---------------------------------------
Txirop, txirop, txirop, txirop, txirop,
txirop, txirop, txop, txop, txop.
1|---------------------------2-5-2-------
2|---------5-5-5-5-3-5-3-5-3-------------
3|-3-3-3-3-------------------------------
4|---------------------------------------
Txirop, txirop, txirop, txirop, txirop,
txirop, txirop, txop.
1|---------------------------------------
2|-----------------3-3-3-3-5-5-5-5-------
3|-3-3-3-3-------------------------------
4|---------5-5-5-5-----------------------
Porque te olerá el aliento nadie te dará ni
un beso y además te va ha hacer ganar peso.
1|---------------------------2-5-2-------
2|---------5-5-5-5-3-3-3-3-3-------------
3|-3-3-3-3-------------------------------
4|---------------------------------------
Porque te olerá el aliento nadie te dará ni
un beso y además te va ha hacer ganar peso.
1|---------------------------2-5-2--------------
2|---------5-5-5-5-3-5-3-5-3-------------       |
3|-3-3-3-3-------------------------------       |
4|---------------------------------------       |X2
Pues por eso, pues por eso, uooooo,             |
no comas queso en exceso------------------------
1|---------------------------2-5-2-------
2|---------5-5-5-5-3-3-3-3-3-------------
3|-3-3-3-3-------------------------------
4|---------------------------------------
Aunque un día vallan y te metan preso
aunque estés viajando en un puto expreso.
1|---------------------------------------
2|---------5-5-5-5-3-3-3-3-5-5-5-5-------
3|-3-3-3-3-------------------------------
4|---------------------------------------
Aunque un día vallan y te metan preso
aunque estés viajando en un puto expreso.
1|---------------------------2-5-2--------------
2|---------5-5-5-5-3-5-3-5-3-------------       |
3|-3-3-3-3-------------------------------       |
4|---------------------------------------       |X2
Pues por eso, pues por eso, uooooo,             |
no comas queso en exceso------------------------
1|---------------------------2-5-2-------
2|---------5-5-5-5-3-3-3-3-3-------------
3|-3-3-3-3-------------------------------
4|---------------------------------------
No le des vueltas al seso, ¿cómo vas a
irte a ocupar el Congreso?
1|---------------------------2-5-2-------
2|---------5-5-5-5-3-5-3-5-3-------------
3|-3-3-3-3-------------------------------
4|---------------------------------------
No le des vueltas al seso, ¿cómo vas a
irte a ocupar el Congreso?
1|---------------------------2-5-2-------
2|---------5-5-5-5-3-5-3-5-3-------------
3|-3-3-3-3-------------------------------
4|---------------------------------------
Pues por eso, pues por eso, uooooo,
no comas queso en exceso.
1|---------------------------2-5-2-------
2|---------5-5-5-5-3-5-3-5-3-------------
3|-3-3-3-3-------------------------------
4|---------------------------------------
Pues por eso, pues por eso, uooooo,
no comas queso en exceso, ¡no!
1|---------------------------2-5-2-------
2|---------5-5-5-5-3-5-3-5-3-------------
3|-3-3-3-3-------------------------------
4|---------------------------------------
Txirop, txirop, txirop, txirop, txirop,
txirop, txirop, txop, txop, txop.
1|---------------------------------------
2|---------5-5-5-5-3-5-3-5---------------
3|-3-3-3-3------------------5--5--5------
4|---------------------------------------
Txirop, txirop, txirop, txirop, txirop,
txirop, txirop, txop.


Para las dudas me mandais un correo:   jfj1391@
Si alguien sabe alguna canción de Manolo Kabezabolo para
bajo por favor que me la mande.
Suggest correction
Give kudos to tab author, rate the tab!
1 2 3 4 5
comments
print report bad tab
guest
You may want to rate the tab now too:
select rating
Wanna post a correction for this tab? Suggest correction