Oops, an error
Loading. Please wait.

Sid Vicious Song Tab

10 views 3 this week
no commentswrite comment
1 2 3 4 5
3 more votes to show rating
add to favorites
launch autoscroll
font size
0
reset
how to read this tab
guitar tuner
×
Best way to learn
"Sid Vicious Song"
Autoscroll
slow
fast
+/-
esc
set tempo
stop
+ Tabulados de made in spain!                   +
+ (                        +
+++++++++++++++++++++++++++++++++++++++++++++++++

        Aqui teneis la canción de sid vicious tal y como la toca
  MKB con acordes partidos, es decir, tocar con un solo dedo que
  pulsa todas las cuerdas del traste, y ¡A aporrear la guitarra!
 
Comienzo: *los dos "acordes" primeros se tocan 3 veces seguidas 
e |--------------------------------------------------|
B |--------------------------------------------------|
G |--------------------------------------------------|
D |----10*----0*-----8-------7-----------------------|
A |----10*----0*-----8-------7-----10------8---------|
E |-------------------------------------10------8----|
 
Cuando empieza a cantar: repetir varias veses los "acordes"
Hace algunos....        Hace algunos....          La puta heroina se nos lo llevó 
Todo hubiera sido...   Si hubiera mezclado...  Si hubiera conocido el calimocho
e |------------------------------------------------------------------------------------------------------|
B |------------------------------------------------------------------------------------------------------|
G |------------------------------------------------------------------------------------------------------|
D |-----------------------------------------------------------------8--------------------10--------------|
A |-------8--------------------------------10-----------------------8--------------------10------------8-|
E |-------8--------------------------------10----------------------------------------------------------8-|
 
Estribillo:repetir varias veses los "acordes" 
 
        Si SiD Vicious...

e |-----------------------------------|
B |-----------------------------------|
G |-----------------------------------|
D |----10----------------8------------|
A |----10------10--------8-------8----|
E |------------10----------------8----|
Suggest correction
Give kudos to tab author, rate the tab!
1 2 3 4 5
comments
print report bad tab
guest
You may want to rate the tab now too:
select rating
Wanna post a correction for this tab? Suggest correction