Oops, an error
Loading. Please wait.

Top Kapi tab

278 views 1 this week
no commentswrite comment
1 2 3 4 5
3 more votes to show rating
add to favorites
×
Save as Personal and add changes to this tab that will be seen only by you. Learn more ›
×
You can save this tab as Personal to edit and correct it or add notes. All changes will be seen only by you. Learn more »
launch autoscroll
font size
0
reset
how to read this tab
guitar tuner
edit
Autoscroll
slow
fast
+/-
esc
set tempo
stop
Author
Top Kapi - Manos Hatzidakis (1925-1994)

tabbed by Andrew Lee - andrewlee6@hotmail.com

tuning - D A D G B E

1  | . . . | . . . | . . . | . . .   | . . . | . . . | . . . | . . .
 |---------------------------------|---------------------------------|
 |---------------------------------|---------------------------------|
 |-----3p2-----3p2-----3p2-----1-2-|-----3p2-----3p2-----3p2-----1-2-|
 |-0---------------0---------4-----|-0---------------0---------4-----|
 |---------0---------------0-------|---------0---------------0-------|
 |---------------------------------|---------------------------------|

3  | . . . | . . . | . . . | . . .   | . . . | . . . | . . . | . . .
 |-3---2---2---2---3---2---1-------|-1---2---------------------------|
 |-----------------------------3---|---------------------------------|
 |-----3p2-----3p2-----3p2-----3p2-|-----3p2-----2-------3p2-----1-2-|
 |-0---------------0---------------|-0---------------0---------4-----|
 |---------0---------------0-------|---------0---------------0-------|
 |---------------------------------|---------------------------------|

5  | . . . | . . . | . . . | . . .   | . . . | . . . | . . . | . . .
 |-3---2---2---2---3---2---1-------|-1---2---------------------------|
 |-------------------------3-------|---------------------------------|
 |-----3p2-----3p2-----3p2-----3p2-|-----3p2-----2-------3p2-----1-2-|
 |-0---------------0---------------|-0---------------0---------4-----|
 |---------0---------------0-------|---------0---------------0-------|
 |---------------------------------|---------------------------------|

7  | . . . | . . . | . . . | . . .   | . . . | . . . | . . . | . . .
 |---3---2---2---2---3---2---1-----|---3---2---2---2---3---2---1-----|
 |-----------------0-------------3-|-----------------0-------------3-|
 |-3---2---2---2-------2---1-------|-3---2---2---2-------2---1-------|
 |-----------------0-----------4---|-----------------0-----------4---|
 |---------0---------------0-------|---------0---------------0-------|
 |-0-------------------------------|-0-------------------------------|

9  | . . . | . . . | . . . | . . .   | . . . | . . . | . . . | . . .
 |---1---2---2---2---2---2---2---2-|-1h2-----------------------------|
 |---------------------------------|-------3---3---3---3-------------|
 |-1---2---2---2---2---2---2---2---|-1h2-------------------2---------|
 |-----------------0---------------|-0---4---4---4---4---4---5---4---|
 |---------0---------------0-------|---------0-----------------------|
 |-0-------------------------------|-----------------0---------------|

11 | . . . | . . . | . . . | . . .   | . . . | . . . | . . . | . . .
 |---0---0---0---0---0---0---0---0-|-------3---3---3---3---2---0-----|
 |-----2-------2---2---0-----------|-----0-------0---0-------------3-|
 |-0---2-------2---2---0---2---0---|-2---0-------0---0---2---0-------|
 |-2-----------------------4---2---|-4-------0-------------------4---|
 |-0---------------0---------------|---------------------------------|
 |---------2-----------------------|-2---------------2---------------|

13 | . . . | . . . | . . . | . . .   | . . . | . . . | . . . | . . .
 |---0---2---2---3-2p0-------0-----|-------2-------2-------2---0-----|
 |-------------0-------3---------3-|---3-------3-------3-----------3-|
 |-0---2---2-------2p0-----0-------|-----2-------2-------2---0-------|
 |-----------------0---4-------4---|-4-------4-------4-----------4---|
 |---------0---------------0-------|---------5-----------------------|
 |-0-------------------------------|-0---------------0---------------|

15 | . . . | . . . | . . . | . . .   | . . . | . . . | . . . | . . .
 |---0---5---5---5---5---3---2---0-|---2---3---3---3---3---2---0-----|
 |---------------------------------|-----0---0---0---0-------------3-|
 |-0---6---6---6---6---4---2---0---|-2-------0-----------2---0-------|
 |---------7-----------------------|-----------------------------4---|
 |-0---------------4---------------|---------------------------------|
 |---------------------------------|-5---------------5---------------|

17 | . . . | . . . | . . . | . . .   | . . . | . . . | . . . | . . .
 |---0---2---2---3-2p0-------0-----|-------2-------2-------2-------2-|
 |-------------0-------3---------3-|---3-------3-------3-------3-----|
 |-0---2---2-------2p0-----0-------|-----2-------2-------2-------2---|
 |-----------------0---4-------4---|-4-------4-------4-------4-------|
 |---------0---------------0-------|---------5---------------5-------|
 |-0-------------------------------|-0---------------0---------------|

19 | . . . | . . . | . . . | . . .   | . . . | . . . | . . . | . . .
 |-5---10----------8---7-----------|-1-------------------------------|
 |-----7-------10--7-------10--8---|-----7-------3-3-----3-3-----3---|
 |-------------7-----------7-------|-----7---------------------------|
 |-0---------------0---------------|-0---------------0---------------|
 |---------0---------------0-------|---------0---------------0-------|
 |---------------------------------|---------------------------------|

21 | . . . | . . . | . . . | . . .   | . . . | . . . | . . . | . . .
 |-5-10------------8---7-----------|-1h2-----------------------------|
 |----7--------10--7-------10--8---|-----3-------3-------3-3-----3---|
 |-------------7-----------7-------|---------------------------------|
 |-0---------------0---------------|-0---------------0---------------|
 |---------0---------------0-------|---------0---------------0-------|
 |---------------------------------|---------------------------------|

23 | . . . | . . . | . . . | . . .   | . . . | . . . | . . . | . . .
 |-----10----------8---7-----------|---------------------------------|
 |-10----------10--7-------10--8---|-6---7---------------------------|
 |---7---7---7---7---7---7---7---7-|---7---7---7---7---7---7---7---7-|
 |-0---0-----------0---0-----------|-0---0-----------0---0-----------|
 |---------0----0----------0---0---|---------0---0-----------0---0---|
 |---------------------------------|---------------------------------|

25 | . . . | . . . | . . . | . . .   | . . . | . . . | . . . | . . .
 |-----10----------8---7-----------|-1h2-----------------2---0-------|
 |-10----------10--7-------10--8---|-----3-----3---3-------------3---|
 |---7---7---7---7---7---7---7---7-|---------------------2---0-------|
 |-0---0-----------0---0-----------|-0---------------0-----------4---|
 |---------0---0-----------0---0---|---------0---0-------------------|
 |---------------------------------|---------------------------------|

27 | . . . | . . . | . . . | . . .   | . . . | . . . | . . . | . . .
 |---0---5---5---5---5---3---2---0-|---2---3---3---3---3---2---0-----|
 |---------------------------------|-----0---0---0---0-------------3-|
 |-0---6---6---6---6---4---2---0---|-2-------0-----------2---0-------|
 |---------7-----------------------|-----------------------------4---|
 |-0---------------0---------------|---------------------------------|
 |---------------------------------|-5---------------5---------------|

29 | . . . | . . . | . . . | . . .   | . . . | . . . | . . . | . . .
 |---0---2---2---3-2p0-------0-----|-------2-------2-------2---0-----|
 |-------------0-------3---------3-|---3-------3-------3-----------3-|
 |-0---2---2-------2p0-----0-------|-----2-------2-------2---0-------|
 |-----------------0---4-------4---|-4-------4-------0-----------4---|
 |---------0---------------0-------|---------5-----------------------|
 |-0-------------------------------|-0-------------------------------|

31 | . . . | . . . | . . . | . . .   | . . . | . . . | . . . | . . .
 |---0---5---5---5---5---3---2---0-|---2---3---3---3---3---2---0-----|
 |---------------------------------|-----0---0---0---0-------------3-|
 |-0---6---6---6---6---4---2---0---|-2-------0-----------2---0-------|
 |---------7-----------------------|-----------------------------4---|
 |-0---------------0---------------|---------------------------------|
 |---------------------------------|-5---------------5---------------|

33 | . . . | . . . | . . . | . . .   | . . . | . . . | . . . | . . .
 |---0---2---2---3-2p0-------0-----|-----------2---2-----------2---2-|
 |-------------0-------3---------3-|---3---3-----------3---3---------|
 |-0---2---2-------2p0-----0-------|---------2---2-----------2---2---|
 |-----------------0---4-------4---|-4---4-----------4---4-----------|
 |---------0---------------0-------|-5---5---0---0---5---5---0---0---|
 |-0-------------------------------|---------------------------------|

35 | . . . | . . . | . . . | . . .   | . . . | . . . | . . . | . . .
 |---3---2---2---2---3---2---1-----|---1---2---2---2---2---2---2---2-|
 |-----------------0-------------3-|---------------------------------|
 |-3---2---2---2-------2---1-------|-1---2---2---2---2---2---2---2---|
 |-0---------------0-----------4---|-0---------------0---------------|
 |---------0---------------0-------|---------0---------------0-------|
 |---------------------------------|---------------------------------|

37 | . . . | . . . | . . . | . . .   | . . . | . . . | . . . | . . .
 |---3---2---2---2---3---2---1-----|-1h2-----------------------2---2-|
 |-----------------0-------------3-|-------3---3---3---3---3---------|
 |-3---2---2---2-------2---1-------|-1h2---------------------2---2---|
 |-0---------------0-----------4---|-0---4---4---4---4---4-----------|
 |---------0---------------0-------|---------0---------------0---0---|
 |---------------------------------|-----------------0---0-----------|

39 | . . . | . . . | . . . | . . .   | . . . | . . . | . . . | . . .
 |-3---2---2---2---3---2---1-------|-1---2---------------------------|
 |-----------------------------3---|---------------------------------|
 |-----3p2-----3p2-----3p2-----3p2-|-----3p2-----2-------3p2-----1-2-|
 |-0---------------0---------------|-0---------------0---------4-----|
 |---------0---------------0-------|---------0---------------0-------|
 |---------------------------------|---------------------------------|

41 | . . . | . . . | . . . | . . .   | . . . | . . . | . . . | . . .
 |-3---2---2---2---3---2---1-------|-1---2---------------------------|
 |-----------------------------3---|---------------------------------|
 |-----3p2-----3p2-----3p2-----3p2-|-----3p2-----2-------3p2-----1-2-|
 |-0---------------0---------------|-0---------------0---------4-----|
 |---------0---------------0-------|---------0---------------0-------|
 |---------------------------------|---------------------------------|

43 | . . . | . . . | . . . | . . .   | . . . | . . . | . . . | . . .
 |---------------------------------|--------------------------------||
 |---------------------------------|--------------------------------||
 |-----3p2-----3p2-----3p2-----3p2-|--------------------------------||
 |-0---------------0---------------|-0------------------------------||
 |---------0---------------0-------|--------------------------------||
 |---------------------------------|--------------------------------||

            
            
Suggest correction
Creating personal tab
Creating personal tab
You can edit any tab online and save it as your Personal.

You can edit, replace or remove any tab part or add personal notes – all changes will be seen only by you.

Personal tabs can be accessed anytime from any device, even offline.
Learn more »
Give kudos to tab author, rate the tab!
1 2 3 4 5
comments
print report bad tab
guest
You may want to rate the tab now too:
select rating
Wanna post a correction for this tab? Suggest correction