Oops, an error
Loading. Please wait.

Black Wind Fire And Steel Bass Tab

version 2
version 2

Whole song

Interactive

1,829 views 12 this week
no commentswrite comment
1 2 3 4 5
please rate
add to favorites
launch autoscroll
font size
0
reset
guitar tuner
Autoscroll
slow
fast
+/-
esc
set tempo
stop
Help us to improve Ultimate-Guitar.com Take our survey!
×
Author
Difficulty
novice
Hi!

This is my second Tablature. I hope you will like it, and I wish you much fun playing 
Wind, Fire And Steel!

Greets
Rodario
Bass4EVER
____________________________________________________________________________

Tuning: Standard Tuning (EADG)
Notes: Play with pic
About The Song: The Song is very easy, but it´s very fast. You should use a fat pic 
3 mm), because you can play it so hard and fast!

Let´s play!


Intro: (Only Bass)

G|-------------------------------------------------------------------------|
D|-------------------------------------------------------------------------|
A|-77777777777777777777777777777777777777777777777777777777777777777777777-|
E|-------------------------------------------------------------------------|

Verse 1: (Full moons light is calling me, my kingdom lies within...)

G|-------------------------------------------------------------------------|
D|-------------------------------------------------------------------------|
A|-77777777777777777777777777777777777777-33-55-77-------------------------|
E|-------------------------------------------------------------------------|

G|-------------------------------------------------------------------------|
D|-------------------------------------------------------------------------|
A|-77777777777777777777777777777777777777-33-55-7--------------------------|
E|----------------------------------------------0--------------------------|


Refrain: (Born From Black Wind, Fire And Steel...)

G|-------------------------------------------------------------------------|
D|-------------------------------------------------------------------------|
A|------5555-77777777-------5555-77777777----------------------------------|
E|-3333----------------3333------------------------------------------------|

G|-------------------------------------------------------------------------|
D|-------------------------------------------------------------------------|
A|------5555-77777777--333333333333335555555555555577777777777777-7-7-7-7--|
E|-3333--------------------------------------------------------------------|

Verse 2: (Pounded by the hammers...)

G|-------------------------------------------------------------------------|
D|-------------------------------------------------------------------------|
A|-77777777777777777777777777777777777777-33-55-77-------------------------|
E|-------------------------------------------------------------------------|

G|-------------------------------------------------------------------------|
D|-------------------------------------------------------------------------|
A|-77777777777777777777777777777777777777-33-55-7--------------------------|
E|----------------------------------------------0--------------------------|

Refrain: (Born From Black Wind, Fire And Steel...)

G|-------------------------------------------------------------------------|
D|-------------------------------------------------------------------------|
A|------5555-77777777-------5555-77777777----------------------------------|
E|-3333----------------3333------------------------------------------------|

G|-------------------------------------------------------------------------|
D|-------------------------------------------------------------------------|
A|------5555-77777777--333333333333335555555555555577777777777777-7-7-7-7--|
E|-3333--------------------------------------------------------------------|

Verse 3: (I am an Outcast, of the path of no return...)

G|-------------------------------------------------------------------------|
D|-------------------------------------------------------------------------|
A|-77777777777777777777777777777777777777-33-55-77-------------------------|
E|-------------------------------------------------------------------------|

G|-------------------------------------------------------------------------|
D|-------------------------------------------------------------------------|
A|-77777777777777777777777777777777777777-33-55-7--------------------------|
E|----------------------------------------------0--------------------------|

Refrain: (Born From Black Wind, Fire And Steel...)

G|-------------------------------------------------------------------------|
D|-------------------------------------------------------------------------|
A|------5555-77777777-------5555-77777777----------------------------------|
E|-3333----------------3333------------------------------------------------|

G|-------------------------------------------------------------------------|
D|-------------------------------------------------------------------------|
A|------5555-77777777--333333333333335555555555555577777777777777-7-7-7-7--|
E|-3333--------------------------------------------------------------------|

Bridge:

G|-------------------------------------------------------------------------|
D|-------------------------------------------------------------------------|
A|-77777777777777777777777777777777777777-33-55-77-------------------------|
E|-------------------------------------------------------------------------|

G|-------------------------------------------------------------------------|
D|-------------------------------------------------------------------------|
A|-77777777777777777777777777777777777777-33-55--7-------------------------|
E|-------------------------------------------------------------------------|

G|-------------------------------------------------------------------------|
D|-------------------------------------------------------------------------|
A|------5555-77777777-------5555-77777777----------------------------------|
E|-3333----------------3333------------------------------------------------|

G|-------------------------------------------------------------------------|
D|-------------------------------------------------------------------------|
A|------5555-77777777--333333333333335555555555555577777777777777777777777-|
E|-3333--------------------------------------------------------------------|

Once more Verse 3: (play it with more power! play it harder!)

G|-------------------------------------------------------------------------|
D|-------------------------------------------------------------------------|
A|-77777777777777777777777777777777777777-33-55-77-------------------------|
E|-------------------------------------------------------------------------|

G|-------------------------------------------------------------------------|
D|-------------------------------------------------------------------------|
A|-77777777777777777777777777777777777777-33-55-77777777-------------------|
E|-------------------------------------------------------------------------|

Refrain/Outro: (Born From Black Wind, Fire And Steel...)

G|-------------------------------------------------------------------------|
D|-------------------------------------------------------------------------|
A|------5555-77777777-------5555-77777777----------------------------------|
E|-3333----------------3333------------------------------------------------|

G|-------------------------------------------------------------------------|
D|-------------------------------------------------------------------------|
A|------5555-77777777--3-3-5-5-77777777777777------------------------------|
E|-3333--------------------------------------------------------------------|

G|-------------------------------------------------------------------------|
D|-------------------------------------------------------------------------|
A|------5555-77777777-------5555-77777777----------------------------------|
E|-3333----------------3333------------------------------------------------|

G|-------------------------------------------------------------------------|
D|-------------------------------------------------------------------------|
A|------5555-77777777--3-3-5-5-77777777777777------------------------------|
E|-3333--------------------------------------------------------------------|

G|-------------------------------------------------------------------------|
D|-------------------------------------------------------------------------|
A|------5555-77777777-------5555-77777777----------------------------------|
E|-3333----------------3333------------------------------------------------|

G|-------------------------------------------------------------------------|
D|-------------------------------------------------------------------------|
A|------5555-77777777--3-3-5-5-77777777777777------------------------------|
E|-3333--------------------------------------------------------------------|

last time:

G|-------------------------------------------------------------------------|
D|-------------------------------------------------------------------------|
A|------5555-77777777-------5555-77777777----------------------------------|
E|-3333----------------3333------------------------------------------------|

G|-------------------------------------------------------------------------|
D|-------------------------------------------------------------------------|
A|------5555-77777777------3--------------3~5------------------------------|
E|-3333--------------------------------------------------------------------|

G|-------------------------------------------------------------------------|
D|-------------------------------------------------------------------------|
A|-77777777777777777777777777777777777777777777777777777777777777777777777-|
E|-------------------------------------------------------------------------|

G|-------------------------------------------------------------------------|
D|-------------------------------------------------------------------------|
A|-77777777777777777777777777777777777777777777777777777777777777777777777-|
E|-------------------------------------------------------------------------|

G|-------------------------------------------------------------------------|
D|-------------------------------------------------------------------------|
A|-77777777777777777777-7-7-7-7-7-7-7-7-7-7-7-7----------------------------|
E|-------------------------------------------------------------------------|

Outro:

G|-------------------------------------------------------------------------|
D|-------------------------------------------------------------------------|
A|----7--7--10--7--15--14--7-9-10------------------------------------------|
E|--------------------------------------------------------0----------------|


The End ^^

Ok, I hope you enjoyed it!

Greets
Rodario

Written by
Rodario
30 June 2007
Suggest correction
Give kudos to tab author, rate the tab!
1 2 3 4 5
comments
print report bad tab
guest
You may want to rate the tab now too:
select rating
Please do not post tabs as comments. Select "correction" instead!