Oops, an error
Loading. Please wait.

Dark Avenger Bass Tab

version 2
version 2

Whole song

990 views 1 this week
no commentswrite comment
1 2 3 4 5
please rate
add to favorites
launch autoscroll
font size
0
reset
guitar tuner
Autoscroll
slow
fast
+/-
esc
set tempo
stop
Help us to improve Ultimate-Guitar.com Take our survey!
×
Difficulty
intermediate
ManOwaR - Battle Hymns - Dark Avenger


Intro (let ring 0 notes in the intro)
h=hammer on
 
|---------------|-------------------|
|-5h7-----7-----|-5h7-7-----7-7-----|
|------0-----0--|--------0-------0--|
|---------------|-------------------|


|---------------|-------------------|
|-5h7-----7-----|-5h7-7-----7---7---|
|------0-----0--|--------0----0---0-|
|---------------|-------------------|

|---------------|-------------------|
|-5h7-----7-----|-5h7-7-----7-7-----|
|------0-----0--|--------0-------0--|
|---------------|-------------------|
					    Dive 
|--------------|-------------------------|------|
|-5h7-----7----|---------------17-19/21--|--14--|
|------0-----0-|-/19-19-17-19------------|--12--|
|--------------|-------------------------|--12--|

|---------------------------|
|----------------------5----|
|-3--3--3--3-3--3-3-3----6--|
|---------------------------|

|---------------------------|
|----------------------5----|
|-3--3--3--3-3--3-3-3----6--|
|---------------------------|

  Bend
|----------------------|
|-----------------5----|
|-3--3--3--3-3-3----6--|
|----------------------|

|---------------------------|
|----------------------5----|
|-3--3--3--3-3--3-3-3----6--|
|---------------------------|

|-----------------|
|-----------------|
|-3--3--3-3-3--3/-|
|-----------------|

verse1

|--------------|---------------|x4
|--------------|-----------2---|
|-0--0----0--0-|-0--0-0-0----3-|
|-------3------|---------------|

Chorus

|------------------|-------------|x4
|------------------|-------------|
|-----------10-9-7-|-------------|
|-0-0-0-0-0--------|-7--7-7-7--7-|

verse2

|--------------|---------------|x4
|--------------|-----------2---|
|-0--0----0--0-|-0--0-0-0----3-|
|-------3------|---------------|

|---------------------------|
|----------------------5----|
|-3--3--3--3-3--3-3-3----6--|
|---------------------------|

|---------------------------|
|----------------------5----|
|-3--3--3--3-3--3-3-3----6--|
|---------------------------|

  Bend
|----------------------|
|-----------------5----|
|-3--3--3--3-3-3----6--|
|----------------------|

|---------------------------|
|----------------------5----|
|-3--3--3--3-3--3-3-3----6--|
|---------------------------|

|-----------------|
|-----------------|
|-3--3--3-3-3--3/-|
|-----------------|

|--------------|---------------|x4
|--------------|-----------2---|
|-0--0----0--0-|-0--0-0-0----3-|
|-------3------|---------------|

Chorus2

|------------------|-------------|x4
|------------------|-------------|
|-----------10-9-7-|-------------|
|-0-0-0-0-0--------|-7--7-7-7--7-|

....

Before the solo

|-------------|----|
|-------------|----|
|-3--2--0-----|--0-|
|----------3--|----|

		during the first solo
|------------|-------------------------|
|------------|-------------------------|
|-3--2--0----|-3-3-3-3-3-3-3-3-3-3-3-3-|
|----------3-|-------------------------|

|-------------------------|x3
|-------------------------|
|-3-3-3-3-3-3-3-3-3-3-3-3-|
|-------------------------|

|-------------------------|x3
|-------------------------|
|-0-0-0-0-0-0-0-0-0-0-0-0-|
|-------------------------|


|------------|
|------------|
|-3--2--0----|
|----------3-|


|------------|-------------|------------|-----------|x3
|------------|-------------|------------|-----------|
|-------7--7-|-7--6--5--3--|-------7--7-|-7--6--5---|
|-00--0------|-------------|-00--0------|-----------|


|-------------------------|x3
|-------------------------|
|-0-0-0-0-0-0-0-0-0-0-0-0-|
|-------------------------|

|------------|
|------------|
|-3--2--0----|
|----------3-|

|-------------------------|x3
|-------------------------|
|-0-0-0-0-0-0-0-0-0-0-0-0-|
|-------------------------|

|------------|
|------------|
|-3--2--0----|
|----------3-|

|-------------------------|x4
|-------------------------|
|-3-3-3-3-3-3-3-3-3-3-3-3-|
|-------------------------|

|-------------------------|x3
|-------------------------|
|-0-0-0-0-0-0-0-0-0-0-0-0-|
|-------------------------|

|------------|-------------|------------|-----------|x3
|------------|-------------|------------|-----------|
|-------7--7-|-7--6--5--3--|-------7--7-|-7--6--5---|
|-00--0------|-------------|-00--0------|-----------|

|-------------------------|x3
|-------------------------|
|-0-0-0-0-0-0-0-0-0-0-0-0-|
|-------------------------|

|------------|
|------------|
|-3--2--0----|
|----------3-|

|-------------------------|x3
|-------------------------|
|-0-0-0-0-0-0-0-0-0-0-0-0-|
|-------------------------|

|------------|
|------------|
|-3--2--0----|
|----------3-|

|-------------------------|x4
|-------------------------|
|-3-3-3-3-3-3-3-3-3-3-3-3-|
|-------------------------|

|-------------------------|x3
|-------------------------|
|-0-0-0-0-0-0-0-0-0-0-0-0-|
|-------------------------|

|------------|-------------|------------|-----------|x3
|------------|-------------|------------|-----------|
|-------7--7-|-7--6--5--3--|-------7--7-|-7--6--5---|
|-00--0------|-------------|-00--0------|-----------|

second solo

|-------------------------|x3
|-------------------------|
|-0-0-0-0-0-0-0-0-0-0-0-0-|
|-------------------------|

|------------|
|------------|
|-3--2--0----|
|----------3-|

|-------------------------|x3
|-------------------------|
|-0-0-0-0-0-0-0-0-0-0-0-0-|
|-------------------------|

|------------|
|------------|
|-3--2--0----|
|----------3-|

|-------------------------|x4
|-------------------------|
|-3-3-3-3-3-3-3-3-3-3-3-3-|
|-------------------------|

|-------------------------|x3
|-------------------------|
|-0-0-0-0-0-0-0-0-0-0-0-0-|
|-------------------------|


|------------|
|------------|
|-3--2--0----|
|----------3-|

final chorus

|------------|-------------|------------|-----------|
|------------|-------------|------------|-----------|
|-------7--7-|-7--6--5--3--|-------7--7-|-7--6--5---|
|-00--0------|-------------|-00--0------|-----------|

|------------|-------------|-------------|-------------|----------|
|------------|-------------|-------------|-------------|----------|
|-------7--7-|-7--6--5--3--|-7--6--5--3--|-7--6--5--3--|-7--6--5--|
|-00--0------|-------------|-------------|-------------|----------|



Suggest correction
Give kudos to tab author, rate the tab!
1 2 3 4 5
comments
print report bad tab
guest
You may want to rate the tab now too:
select rating
Please do not post tabs as comments. Select "correction" instead!