Oops, an error
Loading. Please wait.

Death Tone Bass Tab

1,304 views 1 this week
no commentswrite comment
1 2 3 4 5
2 more votes to show rating
add to favorites
launch autoscroll
font size
0
reset
guitar tuner
Autoscroll
slow
fast
+/-
esc
set tempo
stop
Help us to improve Ultimate-Guitar.com Take our survey!
×
Difficulty
novice
INTRO/PRE-VERSE
G----------------------------------------------------|
D----------------------------------------------------|
A-----------------4---5---4------------------4--5--5-|
E-00--3-0-4-0-5-00--0---0----00--3-0-4-0-5-00--0--0--|
VERSE
G-------------------------------------------|
D-------------------------------------------|
A-------------------------------------------|
E000000000000 REPLAY
PRE-CHORUS
G--------------------------|
D--------------------------|
A--333333--55555555--------|
E--------------------------|
CHORUS
G---------------|
D---------------|
A--775-775---55-|
E00--------7----|
AFTER CHORUS
G------------------|
D------------------|
A33333------222222-|
E-----222222-------|

THE GREEK VOICE ËÁÊÇÓ 
+ CLIFF "PASSENGERS"
Suggest correction
Give kudos to tab author, rate the tab!
1 2 3 4 5
comments
print report bad tab
guest
You may want to rate the tab now too:
select rating
Wanna post a correction for this tab? Suggest correction