Oops, an error
Loading. Please wait.

Each Dawn I Die Tab

version 1
version 1

Whole song

Interactive

by Manowar
1,648 views 1 this week
1 commentread comment
1 2 3 4 5
1 last vote to show rating
add to favorites
launch autoscroll
font size
0
reset
how to read this tab
guitar tuner
Autoscroll
slow
fast
+/-
esc
set tempo
stop
Author
Difficulty
Tuning
Tabbers playing skills
intermediate
E A D G B E
intermediate ++
Band-Manowar
Song-Each Dawn I Die(Hail to England)
Tabber-Edwardthegreat5
Standard Tuning

 Riff 1
 8x
e|----------------------------------------------------------------------------|
B|----------------------------------------------------------------------------|
G|-6-6-6-6-6-6----------------------------------------------------------------|
D|-6-6-6-6-6-6----------------------------------------------------------------|
A|-4-4-4-4-4-4-4-5-7-5--------------------------------------------------------|
E|----------------------------------------------------------------------------|

 Riff 2
 3x
e|----------------------------------------------------------------------------|
B|----------------------------------------------------------------------------|
G|-6-------------11-----------------------------------------------------------|
D|-6-------------11-----------------------------------------------------------|
A|-4--4-5-7-5-4--9--4-5-7-5---------------------------------------------------|
E|----------------------------------------------------------------------------|

 Riff 3
  3x                            1x
e|-----------------------------|----------------------------------------------|
B|-----------------------------|----------------------------------------------|
G|-----------------------------|-----------------------4-6--------------------|
D|-----------------------------|---------------------6-4-6--------------------|
A|-----------------------------|---------------------6-2-4--------------------|
E|-4-4-4-4-4-4-4-4-4-4-4-5-7-5-|-4-4-4-4-4-4-4-4-4-4-4------------------------|

Play Riff 1 6x

Play Riff 2 3x

Play Riff 3

 Chorus(Play Riff 1 8x, Riff 2 3x, Riff 3)
e|----------------------------------------------------------------------------|
B|----------------------------------------------------------------------------|
G|----4-6------4-6-------4-6-----4-6------------------------------------------|
D|-4--4-6---4--4-6----2--4-6---2-4-6------------------------------------------|
A|-4--2-4---4--2-4----2--2-4---2-2-4------------------------------------------|
E|-2--------2---------0--------0----------------------------------------------|

 Solo
e|----------------------------------------------------------------------------|
B|--------------------------------------------------------------------9~------|
G|-4h6p4h6p4h6p4h6p4h6ph4-7h9p7h9p7h9-6h7h9p7-6h7h9p7-6h7h9p7-6h7h9p7---------|
D|----------------------------------------------------------------------------|
A|----------------------------------------------------------------------------|
E|----------------------------------------------------------------------------|

e|----------------------------------------------------------------------------|
B|-9-10-12-10-9---------------9-10-12-10-9---------------9-10-12-10-9---------|
G|--------------11(13)-11(13)--------------11(13)-11(13)--------------11(13)--|
D|----------------------------------------------------------------------------|
A|----------------------------------------------------------------------------|
E|----------------------------------------------------------------------------|

e|----------------------------|-21-21/22----------------21-19-17-19-17-16-----|
B|----------------------------|-----------------------------------------------|
G|-9-11-9\7-9-7----7----------|----------4h6p4h6p4h6p4------------------------|
D|--------------11---11-9-7-6-|-----------------------------------------------|
A|----------------------------|-----------------------------------------------|
E|----------------------------|-----------------------------------------------|

e|----------------------------------------------------------------------------|
B|-------10-7----------15-17(19)--15-17-15-14-15-14----14---------------------|
G|-9(11)------9-7---16------------------------------16----16-14-16-14-13------|
D|-----------------------------------------------------------------------16-14|
A|----------------------------------------------------------------------------|
E|----------------------------------------------------------------------------|

e|-------------------------------------------------------20(22)br-17----------|
B|-------------------------------------------------------------------20-17----|
G|---------------------------P.H----P.H----P.H----P.H-------------------------|
D|-12-12(13)some-feedback...-12(13)-12(13)-12(13)-12(13)----------------------|
A|----------------------------------------------------------------------------|
E|----------------------------------------------------------------------------|

e|----------------------------------------------------------------------------|
B|-20(22)-20(22)------------------------------------------T-------T-----------|
G|----------------------11-------9-11(13)br----9-11(13)br-13p11p9-13p11p9-----|
D|------------------11--------11------------11--------------------------------|
A|----------------------------------------------------------------------------|
E|----------------------------------------------------------------------------|

e|-----------------------------------------------|---------4--------4---------|
B|-T-------10(12)--------12-14p12h14p12h14-------|-------4--------4-----------|
G|-13p11p9-----------/13-------------------13----|--6(8)-----6(8)-------------|
D|--------------------------------------------11-|----------------------------|
A|-----------------------------------------------|----------------------------|
E|-----------------------------------------------|--------------------4~------|

e|----------------------------------------------------------------------------|
B|------------------------------------------7\-7\-7\--5-7-5-------------------|
G|---6-7-9-7-6(7)--6(7)-6(7)-4------------------------------9-7-6-------------|
D|-9---------------------------6----------------------------------9-7-6---6-7-|
A|----------------------------------------------------------------------9-----|
E|--------------------------------4/\/\/\-------------------------------------|

e|-----------------------------------------14--16-12-14--16-12-14--12-9-------|
B|----------P.H------------------7~---2~--------------------------------------|
G|---6-7---6-7-6-----------6-7-9----------------------------------------------|
D|-9-----9-------9-7-6-7-9----------------------------------------------------|
A|----------------------------------------------------------------------------|
E|----------------------------------------------------------------------------|

After the solo Play Chorus

Then Riff 1 8x
Suggest correction
Give kudos to tab author, rate the tab!
1 2 3 4 5
comments
print report bad tab
1 comment total.
0 reply
binadra1234 5,537 Apr 20, 2013 02:31 AM

Chours sounds strange but rest of this tab is ****in awesome!

guest
You may want to rate the tab now too:
select rating
Wanna post a correction for this tab? Suggest correction