Oops, an error
Loading. Please wait.

Hail And Kill Tab

version 3
version 3

Whole song

Interactive

2,192 views 3 this week
no commentswrite comment
1 2 3 4 5
1 last vote to show rating
add to favorites
launch autoscroll
font size
0
reset
how to read this tab
guitar tuner
Autoscroll
slow
fast
+/-
esc
set tempo
stop
Help us to improve Ultimate-Guitar.com Take our survey!
×
Author
Difficulty
                                                                         ManOwaR
                                                                        Hail and Kill
                                                                Album: Kings of Metal

(Tuning: Standard A  440. Tuning)
----------------------------------------------------------------------------------------------
(Intro)

Brothers I am calling from the valley of the kings...
----------------------------------------------------------------------------------------------

(Electric Guitar enters)

    Blood  and death await me..

(Verse) 
  E ||----------------------|--------------------------------------------||
  B ||----------------------|--------------------------------------------||
  G ||----------------------|--------------------------------------------||
  D ||----------------------|----7--------7-7-7/-5-5-5/-7-7-7/-5---------||
  A ||-2--------------------|-2-5-5-5-5-5-5-5/-3-3-3/-5-5-5/-3-----------||
  E ||-0-0-0-0-0-0-0-0-0|-0----3-3-3-------------------------------------||


  Hail and KIll!!!!!!
  E ||---------------------------------||
  B ||---------------------------------||
  G ||---------------------------------||
  D ||--------7-7-7/-5-5-5-------------||
  A ||-2-2-2-5-5-5/-3-3-3-2-2-2--------||
  E ||-0-0-0-----------------0-0-0-----||


Sorry no solo.



  Remember Other bands play. ManOwaR KILLS!!!!!!!

Please leave a question or commet..
Suggest correction
Give kudos to tab author, rate the tab!
1 2 3 4 5
comments
print report bad tab
guest
You may want to rate the tab now too:
select rating
Wanna post a correction for this tab? Suggest correction