Oops, an error
Loading. Please wait.

Spirit Horse Of The Cherokee Bass Tab

version 2
version 2

Whole song

Interactive

143 views 1 this week
no commentswrite comment
1 2 3 4 5
please rate
add to favorites
launch autoscroll
font size
0
reset
guitar tuner
Autoscroll
slow
fast
+/-
esc
set tempo
stop
Help us to improve Ultimate-Guitar.com Take our survey!
×
Author
Difficulty
novice
-------------------------------------------------------------------------------
                    Spirit Horse Of The Cherokee - Manowar
-------------------------------------------------------------------------------

Tabbed by: Zaqq
E-mail: zaqqthe@gmail.com

Tuning: standard
Tempo: 95 BPM
Notes: use heavy overdrive/distortion and play with a pick. Also this song features a 
lot of palm muting.

   The main Verse riff (starts at 1:32):

      E SS E E E E E SS
p.m. ------------------|
   G|-------------------| x 15
   D|-------------------|
   A|-------------------|
   E|-3-00-0-0-0-0-0-00-|

      E    REST
p.m. --| 
   G|-------------------|
   D|-------------------|
   A|-------------------|
   E|-0-----------------|


   Chorus:

     W                  W                 W                W
  G|-----------------|-----------------|-14--------------|-----------------| x2
  D|-9---------------|-12--------------|-12--------------|-9---------------|
  A|-7---------------|-10--------------|-----------------|-7---------------|
  E|-----------------|-----------------|-----------------|-----------------|

      SSS SSS SSS SSS   Q   Q   Q   Q
p.m. ----------------| 
   G|-----------------|-----------------| x 2
   D|-----------------|-4---5---2---4---|
   A|-----------------|-2---3---0---2---|
   E|-000-000-000-000-|-----------------|


   Repeat the main Verse riff.


   Repeat Chorus.


   Bridge:
                     
     H.         Q      H..          E    H.          Q     W
  G|-----------------|-9------------11-|-16--------------|-9---------------|
  D|-9----------9----|-7------------9--|-14----------9---|-7---------------|
  A|-7----------7----|-----------------|-------------7---|-----------------|
  E|-----------------|-----------------|-----------------|-----------------|

     Q.     E  H       Q.     E  H       REST        drum fill
  G|-16-----14-11----|-9---------14----|-----------------|-----------------|
  D|-14-----12-9-----|-7------12-12----|-----------------|-----------------|
  A|-----------------|--------10-------|-----------------|-----------------|
  E|-----------------|-----------------|-----------------|-----------------|

      SSSSSSSSSSSSSSSS   SSSSSSSSSSSSSSSSS
p.m. ------------------------------------|
   G|------------------|------------------| x 3
   D|------------------|------------------|
   A|------------------|---------55555555-|
   E|-0000002233333333-|-55555555---------|


   Chorus:

      SSSSSSSSSSSSSSSS   SSSSSSSSSSSSSSSSS
p.m. ------------------------------------|
   G|------------------|------------------|  \
   D|------------------|------------------|   \
   A|------------------|------------------|    \
   E|-0000000000000000-|-3333333333333333-|     \

p.m. ------------------------------------|        x 6
      SSSSSSSSSSSSSSSSS  SSSSSSSSSSSSSSSSS
   G|------------------|------------------|     /
   D|------------------|------------------|    /
   A|-5555555555555555-|------------------|   /
   E|------------------|-0000000000000000-|  /


   Ending:

      SSSSSSSSSSSSSSSS
p.m. -----------------|
   G|------------------| x 4
   D|------------------|
   A|------------------|
   E|-0000000000000000-|

      E. S E E  REST     E. S E E  REST
   G|-4--4-2-4---------|------------------| x 2
   D|-2--2-0-2---------|-4--4-2-4---------|
   A|------------------|-2--2-0-2---------|
   E|------------------|------------------|

      W                   W
   G|------------------|------------------|
   D|-9----------------|-(9)--------------|
   A|-7----------------|-(7)--------------|
   E|------------------|------------------|
          let ring until the song ends

 | p.m. - palm mute

 | W - whole note
 | H - half note
 | Q - quarter note
 | E - eighth note
 | S - sixteenth note
 | E., H., etc - dotted note (H. = half note with a dot)
 | H.. - note with two dots

===============================================================================
Suggest correction
What's this?
You can suggest a correction to this tab. Community and Mods will review your correction and vote to approve or reject it.
comments
We did not receive enough feedback on this tab! Please rate:
print report bad tab
1 2 3 4 5
guest
You may want to rate the tab now too:
select rating
Please do not post tabs as comments. Select "correction" instead!