Oops, an error
Loading. Please wait.

Warriors Of The World Bass Tab

version 1
version 1

Whole song

Interactive

9,919 views 21 this week
no commentswrite comment
1 2 3 4 5
please rate
add to favorites
launch autoscroll
font size
0
reset
guitar tuner
Autoscroll
slow
fast
+/-
esc
set tempo
stop
Help us to improve Ultimate-Guitar.com Take our survey!
×
Contributor
Möbius 124
Warriors of the World Bass Tab

Artist:Manowar
Tabber:Möbius
Album:Warriors of the World

I think you have to now that song if you want to play it easier.
Tuning:D,G,C,F

Drums play first...
Than Bass starts...

|---------------------------------------------------------------------------|
|---------------------------------------------------------------------------|
|-7/0-----------------------------------------------------------------------|
|-----0-000-000-000-000-000-000-000-000-000-000-000-000-000-000-000-000-000-|

When the Guitar plays the same deep note,do this:

|-------------------------------------------------------------------------|
|-------------------------------------------------------------------------|
|-3-333-333-333-333-333-333-333-333---------------------------------------|
|-----------------------------------0-000-000-000-000-000-000-000-000-000-|

play this along with the guitar until the chorus starts:

|----------------------------------------------------------------------------|
|----------------------------------------------------------------------------|
|-10-10-10/7-777-777-777-7/10/5-555-555-555-55-3-333-33-10--9--7-777-777-777-|
|----------------------------------------------------------------------------|

|----------------------------------------------------------------------------|
|----------------------------------------------------------------------------|
|-10-10-10/7-777-777-777-7/10/5-555-555-555-55-3-333-33-10--9--0-000-000-000-|
|----------------------------------------------------------------------------|
                                 "Here our soldiers stand...
|--------------------------------------------------------------------|
|--------------------------------------------------------------------|
|--------------------------------------------------------------------|
|-000-000-000-000-000-000-000-000-000-000-000-000-000-000-000-000-00-|
 "Waiting in a line...            "All are gathered here...
|-------------------------------------------------------------------|
|-------------------------------------------------------------------|
|-3-333-333-333-333-333-333-333-33----------------------------------|
|----------------------------------0-000-000-000-000-000-000-000-00-|
 "The sound will fill...      (Guitar start)
                                  "We alone are fighting...
|-------------------------------------------------------------------|
|-------------------------------------------------------------------|
|-3-333-333-333-333-333-333-33-3-5----------------------------------|
|----------------------------------0-000-000-000-000-000-000-000-00-|
 "We own the right...             "Now swear the blood...
|-------------------------------------------------------------------|
|-------------------------------------------------------------------|
|-3-333-333-333-333-333-333-333-33----------------------------------|
|----------------------------------0-000-000-000-000-000-000-000-00-|
"Stand and fight together...
|-------------------------------|
|-------------------------------|
|-3-333-333-333-333-333-333-333-|
|-------------------------------|
           "Brothers Everywhere...            "We're warriors...
|----------------------------------------------------------------------------|
|----------------------------------------------------------------------------|
|-10-10-10/7-777-777-777-7/10/5-555-555-555-55-3-333-33-10--9--7-777-777-777-|
|----------------------------------------------------------------------------|
           "Like thunder from the sky...      "We're warriors...
|-------------------------------------------------------------------------------|
|-------------------------------------------------------------------------------|
|-10-10-10/7-777-777-777-7/10/5-555-555-555-55-3-333-33-10--9--0-000-000-000-00-|
|-------------------------------------------------------------------------------|
 "Many stand against us...     "We said we would return...        "to
|-------------------------------------------------------------------|
|-------------------------------------------------------------------|
|----------------------------------3-333-333-333-333-333-333-333-33-|
|-0-000-000-000-000-000-000-000-00----------------------------------|
  bring them all ...       "We are the hammer...
|-------------------------------------------------------------------|
|-------------------------------------------------------------------|
|----------------------------------3-333-333-333-333-333-333-33-3-5-|
|-0-000-000-000-000-000-000-000-00----------------------------------|
 "There they wait in...        "With dreams to be a King...
|-------------------------------------------------------------------|
|-------------------------------------------------------------------|
|----------------------------------3-333-333-333-333-333-333-33-3-5-|
|-0-000-000-000-000-000-000-000-00----------------------------------|
 "I call them out...          "And in their final...        "Dieee...
|-------------------------------------------------------------------|
|-------------------------------------------------------------------|
|----------------------------------3-333-333-333-333-333-333-3~-----|
|-0-000-000-000-000-000-000-000-00----------------------------------|
           "Brothers Everywhere...            "We're warriors...
|----------------------------------------------------------------------------|
|----------------------------------------------------------------------------|
|-10-10-10/7-777-777-777-7/10/5-555-555-555-55-3-333-33-10--9--7-777-777-777-|
|----------------------------------------------------------------------------|
           "Like thunder from the sky...      "We're warriors...
|-----------------------------------------------------------------|
|-----------------------------------------------------------------|
|-10-10-10/7-777-777-777-7/10/5-555-555-555-55-3-333-33-10--9--0~-|
|-----------------------------------------------------------------|

No Bass (If i should fall in battle my brothers who fight by my side
Gather my horse and waepons tell my family how i died
Until then i will be strong I will fight for all that is real
All who stand in my way will die by steel)

           "Brothers Everywhere...            "We're warriors...
|----------------------------------------------------------------------------|
|----------------------------------------------------------------------------|
|-10-10-10/7-777-777-777-7/10/5-555-555-555-55-3-333-33-10--9--7-777-777-777-|
|----------------------------------------------------------------------------|
           "Like thunder from the sky...      "We're warriors...
|-------------------------------------------------------------------------------|
|-------------------------------------------------------------------------------|
|-10-10-10/7-777-777-777-7/10/5-555-555-555-55-3-333-33-10--9--0-000-000-000-00-|
|-------------------------------------------------------------------------------|
           "Brothers Everywhere...            "We're warriors...
|----------------------------------------------------------------------------|
|----------------------------------------------------------------------------|
|-10-10-10/7-777-777-777-7/10/5-555-555-555-55-3-333-33-10--9--7-777-777-777-|
|----------------------------------------------------------------------------|
           "Like thunder from the sky...      "We're warriors...
|-------------------------------------------------------------------------------|
|-------------------------------------------------------------------------------|
|-10-10-10/7-777-777-777-7/10/5-555-555-555-55-3-333-33-10--9--0-000-000-000-00-|
|-------------------------------------------------------------------------------|
Outblend.......
comments
We did not receive enough feedback on this tab! Please rate:
print report bad tab
1 2 3 4 5
I want to post or [tab]
guest
You may want to rate the tab now too:
select rating
Please do not post tabs as comments. Select "correction" instead!