Oops, an error
Loading. Please wait.

Warriors Of The World United Bass Tab

version 1
version 1

Whole song

Interactive

8,869 views 9 this week
no commentswrite comment
1 2 3 4 5
please rate
add to favorites
launch autoscroll
font size
0
reset
guitar tuner
Autoscroll
slow
fast
+/-
esc
set tempo
stop
Help us to improve Ultimate-Guitar.com Take our survey!
×
Author
Tuning
D G C F A D
#----------------------------------PLEASE NOTE---------------------------------#
#This file is the author's own work and represents their interpretation of the #
#song. You may only use this file for private study, scholarship, or research. #
#------------------------------------------------------------------------------#

WARRIORS OF THE WORLD UNITED (Bassline)
As recorded by MANOWAR
(From the 2002 Album WARRIORS OF THE WORLD)

Transcribed by DoomMaker (DoomMaker@Chello.hu)
	

Words and Music by Joey DeMaio
Arranged by Manowar

Gtr I (D G C F) - 'Bass'

 Intro
  Q=85
 4/4
  Gtr I
  Wx2
|--------|
|--------|
|--------|
|--------|


   E S S E S S E S S E S S     E S S E S S E S S E S S  4x
|--------------------------||---------------------------||
|--------------------------||o-------------------------o||
|--------------------------||o-------------------------o||
|-12S0-0-0-0-0-0-0-0-0-0-0-||--0-0-0-0-0-0-0-0-0-0-0-0--||


  E S S E S S E S S E S S   E S S E S S E S S E S S
|-------------------------|-------------------------|
|-------------------------|-------------------------|
|-3-3-3-3-3-3-3-3-3-3-3-3-|-3-3-3-3-3-3-3-3-3-3-3-3-|
|-------------------------|-------------------------|


    E S S E S S E S S E S S   3x
||----------------------------||
||o--------------------------o||
||o--------------------------o||
||--0-0-0-0-0-0-0-0-0-0-0-0---||


   E S S E S S E S S E S S
|--------------------------|
|--------------------------|
|--------------------------|
|-12S0-0-0-0-0-0-0-0-0-0-0-|


  E S S E S S E S S E S S   E S S E S S E S S E S S
|-------------------------|--------------------------|
|-------------------------|--------------------------|
|-------------------------|-3-3-3-3-3-3-3-3-3-3-3-3--|
|-0-0-0-0-0-0-0-0-0-0-0-0-|--------------------------|


    E S S E S S E S S E S S  4x
||---------------------------||
||o-------------------------o||
||o-------------------------o||
||--0-0-0-0-0-0-0-0-0-0-0-0--||


  E S S E S S E S S E S S   E S S E S S E S S E S S
|-------------------------|-------------------------|
|-------------------------|-------------------------|
|-3-3-3-3-3-3-3-3-3-3-3-3-|-3-3-3-3-3-3-3-3-3-3-3-3-|
|-------------------------|-------------------------|


   E S S E S S E S S E S S     E S S E S S E S S E  S  S
|--------------------------||----------------------------|
|--------------------------||o---------------------------|
|--------------------------||o---------------------10-10-|
|-12S0-0-0-0-0-0-0-0-0-0-0-||--0-0-0-0-0-0-0-0-0-0-------|


   S S S S E S S E S S E  S  S
|------------------------------|
|------------------------------|
|-10S7-7-7-7-7-7-7-7-7-7-10-10-|
|------------------------------|


   S S S S E S S E S S E S S   E S S E S S E S S E S S
|----------------------------|--------------------------||
|----------------------------|-------------------------o||
|-10S5-5-5-5-5-5-5-5-5-5-5-5-|-3-3-3-3-3-3-------------o||
|----------------------------|-------------3-3-3-2-2-2--||


  E S S E S S E S S E S S   E S S E S S E S S E S S
|-------------------------|-------------------------|
|-------------------------|-------------------------|
|-------------------------|-------------------------|
|-0-0-0-0-0-0-0-0-0-0-0-0-|-0-0-0-0-0-0-0-0-0-0-0-0-|


  E S S E S S E S S E S S   E S S E S S E S S E S S
|-------------------------|----------------------------||
|-------------------------|----------------------------||
|-------------------------|----------------------------||
|-0-0-0-0-0-0-0-0-0-0-0-0-|-0-0-0-0-0-0-0-0-0-0-0-0----||


 Verse
  $
  E S S E S S E S S E S S   E S S E S S E S S E S S
|-------------------------|-------------------------|
|-------------------------|-------------------------|
|-------------------------|-------------------------|
|-0-0-0-0-0-0-0-0-0-0-0-0-|-0-0-0-0-0-0-0-0-0-0-0-0-|


  E S S E S S E S S E S S   E S S E S S E S S E S S
|-------------------------|----------------------------|
|-------------------------|----------------------------|
|-3-3-3-3-3-3-3-3-3-3-3-3-|-3-3-3-3-3-3-3-3-3-3-3-3----|
|-------------------------|----------------------------|


   E S S E S S E S S E S S   E S S E S S E S S E S S
|--------------------------|-------------------------|
|--------------------------|-------------------------|
|--------------------------|-------------------------|
|-12S0-0-0-0-0-0-0-0-0-0-0-|-0-0-0-0-0-0-0-0-0-0-0-0-|


  E S S E S S E S S E S S   E S S E S S E S S E E
|-------------------------|-----------------------|
|-------------------------|-----------------------|
|-3-3-3-3-3-3-3-3-3-3-3-3-|-3-3-3-3-3-3-3-3-3-3-5-|
|-------------------------|-----------------------|


  E S S E S S E S S E S S   E S S E S S E S S E S S
|-------------------------|-------------------------|
|-------------------------|-------------------------|
|-7-----------------------|-------------------------|
|---0-0-0-0-0-0-0-0-0-0-0-|-0-0-0-0-0-0-0-0-0-0-0-0-|


  E S S E S S E S S E S S   E S S E S S E S S E S S
|-------------------------|----------------------------|
|-------------------------|----------------------------|
|-3-3-3-3-3-3-3-3-3-3-3-3-|-3-3-3-3-3-3-3-3-3-3-3-3----|
|-------------------------|----------------------------|


   E S S E S S E S S E S S   E S S E S S E S S E S S
|--------------------------|-------------------------|
|--------------------------|-------------------------|
|--------------------------|-------------------------|
|-12S0-0-0-0-0-0-0-0-0-0-0-|-0-0-0-0-0-0-0-0-0-0-0-0-|


                 To Coda
  E S S E S S E S S E S S   E S S E S S E S S E  S  S
|-------------------------|------------------------------||
|-------------------------|------------------------------||
|-3-3-3-3-3-3-3-3-3-3-3-3-|-3-3-3-3-3-3-3-3-3-3-10-10----||
|-------------------------|------------------------------||


   Chorus
    $$
     S S S S E S S E S S E  S  S    S S S S E S S E S S E S S
||-------------------------------|----------------------------|
||o------------------------------|----------------------------|
||o-10S7-7-7-7-7-7-7-7-7-7-10-10-|-10S5-5-5-5-5-5-5-5-5-5-5-5-|
||-------------------------------|----------------------------|


                           1.
            To Dbl. Coda
  E S S E S S E S S E S S   E S S E S S E S S E  S  S
|-------------------------|-----------------------------||
|-------------------------|----------------------------o||
|-3-3-3-3-3-3-------------|---------------------10-10--o||
|-------------3-3-3-2-2-2-|-0-0-0-0-0-0-0-0-0-0---------||


  2.
            D.S. al Coda     &  D.S.S. al Dbl. Coda      &&
  E S S E S S E S S E S S    E S S E S S S Q  S  S  S     W          +W
|-------------------------||--------------------------||-----------|--------||
|-------------------------||--------------------------||-----------|--------||
|-------------------------||-3-3-3-3-3-3-3------10-10-||-----------|--------||
|-0-0-0-0-0-0-0-0-0-0-0-0-||--------------------------||--0--------|-(0)----||


 Interlude
  Wx15          H.      E  S  S
|-------------|-----------------||
|-------------|-----------------||
|-------------|-----------10-10-||
|-------------|-----------------||


   Out-Chorus
     S S S S E S S E S S E  S  S    S S S S E S S E S S E S S
||-------------------------------|----------------------------|
||o------------------------------|----------------------------|
||o-10S7-7-7-7-7-7-7-7-7-7-10-10-|-10S5-5-5-5-5-5-5-5-5-5-5-5-|
||-------------------------------|----------------------------|


                           1.,2.,3.,4.,5.,6.             7.
  E S S E S S E S S E S S   E S S E S S E S S E  S  S  7x W
|-------------------------|----------------------------||------*|
|-------------------------|---------------------------o||------*|
|-3-3-3-3-3-3-------------|---------------------10-10-o||------*|
|-------------3-3-3-2-2-2-|-0-0-0-0-0-0-0-0-0-0--------||-0----*|



Duration Legend
---------------
W - whole; H - half; Q - quarter; E - 8th; S - 16th; T - 32nd; X - 64th; a - acciaccatura
+ - note tied to previous; . - note dotted; .. - note double dotted
Uncapitalized letters represent notes that are staccato (1/2 duration)
Irregular groupings are notated above the duration line
Duration letters will always appear directly above the note/fret number it represents the
duration for.  Duration letters with no fret number below them represent rests.  Multi-
bar rests are notated in the form Wxn, where n is the number of bars to rest for.  Low
melody durations appear below the staff

Tablature Legend
----------------
 h   - hammer-on
 p   - pull-off
 b   - bend
 pb  - pre-bend
 r   - bend release (if no number after the r, then release immediately)
 /\  - slide into or out of (from/to "nowhere")
 s   - legato slide
 S   - shift slide
 - natural harmonic
[n]  - artificial harmonic
n(n) - tapped harmonic
 ~   - vibrato
 tr  - trill
 T   - tap
 TP  - trem. picking
 PM  - palm muting
\n/  - tremolo bar dip; n = amount to dip
 \n  - tremolo bar down
 n/  - tremolo bar up
/n\  - tremolo bar inverted dip
 =   - hold bend; also acts as connecting device for hammers/pulls
 <> - volume swell (louder/softer)
 x   - on rhythm slash represents muted slash
 o   - on rhythm slash represents single note slash

Misc Legend
-----------
 |  - bar
||  - double bar
||o - repeat start
o|| - repeat end
*|  - double bar (ending)
 :  - bar (freetime)
 $  - Segno
 &  - Coda
Tempo markers -  = BPM(8/16=s8/s16), where s8 = swing 8ths, s16 = swing 16ths

Suggest correction
What's this?
You can suggest a correction to this tab. Community and Mods will review your correction and vote to approve or reject it.
comments
We did not receive enough feedback on this tab! Please rate:
print report bad tab
1 2 3 4 5
guest
You may want to rate the tab now too:
select rating
Please do not post tabs as comments. Select "correction" instead!