Oops, an error
Loading. Please wait.

Stfu intro tab

1,435 views 75 this week
2 commentsread comments
1 2 3 4 5
x 3
add to favorites
×
Save as Personal and add changes to this tab that will be seen only by you. Learn more ›
×
You can save this tab as Personal to edit and correct it or add notes. All changes will be seen only by you. Learn more »
launch autoscroll
font size
0
reset
how to read this tab
guitar tuner
edit
Autoscroll
slow
fast
+/-
esc
set tempo
stop
Author
(chords corresponding with the intro and that is played through the whole song)
      C#m            A           F#m           B
e|------4-----|------0-----|------x-----|------x-----|
B|------5-----|------2-----|------x-----|------4-----|
G|------6-----|------2-----|------x-----|------4-----|
D|---6--6-----|---2--2-----|------4-----|---4--4-----|
A|-4----4-----|-0----0-----|---4--4-----|-2----2-----|
E|------x-----|------x-----|-2----2-----|------x-----|

[Intro]
(part 1)
e|----------------------------------------------|
B|----------------------------------------------|
G|--11h13--9--9h11--6--4h6p4--4--6--4/9---------|
D|----------------------------------------------|
A|----------------------------------------------|
E|----------------------------------------------|

(part 2)
e|-------------------------------------------------------------|
B|-------------------------------------------------------------|
G|--11h13--9--9h11--6--4h6p4-----------------------------------|
D|----------------------------4h6/7p6--6--4--2--2h4p2----------|
A|------------------------------------------------------4--2---|
E|-------------------------------------------------------------|


************************************

| x  Dead note
| h  Hammer-on
| p  Pull-off
| /  Slide up

************************************

            
            
Suggest correction
Creating personal tab
Creating personal tab
You can edit any tab online and save it as your Personal.

You can edit, replace or remove any tab part or add personal notes – all changes will be seen only by you.

Personal tabs can be accessed anytime from any device, even offline.
Learn more »
Give kudos to tab author, rate the tab!
1 2 3 4 5
comments
print report bad tab
2 comments total.
+1 reply
borzughul 183 Mar 30, 2017 03:41 PM

Wrong Mansions band. The Mansions you're thinking of is with a Z, not an S at the end of their name

0 reply
loganbadgett 80 Aug 09, 2017 01:55 PM

absolutely perfect. i have been waiting for someone to make this tab forever, you're absolutely a life saver. great job mate, cheers

guest
You may want to rate the tab now too:
select rating
Wanna post a correction for this tab? Suggest correction