Oops, an error
Loading. Please wait.

Rich White Girls tab

1,900 views 33 this week
5 commentsread comments
1 2 3 4 5
x 4
add to favorites
×
Save as Personal and add changes to this tab that will be seen only by you. Learn more ›
×
You can save this tab as Personal to edit and correct it or add notes. All changes will be seen only by you. Learn more »
launch autoscroll
font size
0
reset
how to read this tab
guitar tuner
edit
Autoscroll
slow
fast
+/-
esc
set tempo
stop
Author
Difficulty
[Intro/Chorus]
e|-----------s---------------------------------------------------------------|
B|-----------s---------------------------------------------------------------|
G|-------7---s------7----------------7------7----------------6---------------|
D|-----------s------9----------------9-----------------------7---------------|
A|-5h7/9-----s---------------------------------------------------------------|
E|-----------s---------------------------------------------------------------|

e|-----------s---------------------------------------------------------------|
B|-----------s---------------------------------------------------------------|
G|-------7---s------7----------------7------7----------------6----6b---------|
D|-----------s------9----------------9-----------------------7---------------|
A|-5h7/9-----s---------------------------------------------------------------|
E|-----------s---------------------------------------------------------------|

(i like to occasionally throw this in instead of the 6b to switch it up)
e|-----------s---------------------------------------------------------------|
B|-----------s---------------------------------------------------------------|
G|-------7---s------7----------------7------7----------------6----6-6h7p6---6|
D|-----------s------9----------------9-----------------------7--7----------7-|
A|-5h7/9-----s---------------------------------------------------------------|
E|-----------s---------------------------------------------------------------|

[Verse 1] 
(Mike Posner)
e|-----------s---------------------------------------------------------------|
B|-----------s---------------------------------------------------------------|
G|-------7---s------7----------------7------7----------------6---------------|
D|-----------s------9----------------9-----------------------7---------------|
A|-5h7/9-----s---------------------------------------------------------------|
E|-----------s---------------------------------------------------------------|

e|-----------s---------------------------------------------------------------|
B|-----------s---------------------------------------------------------------|
G|-------7---s------7----------------7------7----------------6----6b---------|
D|-----------s------9----------------9-----------------------7---------------|
A|-5h7/9-----s---------------------------------------------------------------|
E|-----------s---------------------------------------------------------------|

[Chorus]
e|-----------s---------------------------------------------------------------|
B|-----------s---------------------------------------------------------------|
G|-------7---s------7----------------7------7----------------6---------------|
D|-----------s------9----------------9-----------------------7---------------|
A|-5h7/9-----s---------------------------------------------------------------|
E|-----------s---------------------------------------------------------------|

e|-----------s---------------------------------------------------------------|
B|-----------s---------------------------------------------------------------|
G|-------7---s------7----------------7------7----------------6----6b---------|
D|-----------s------9----------------9-----------------------7---------------|
A|-5h7/9-----s---------------------------------------------------------------|
E|-----------s---------------------------------------------------------------|

[Verse 1] 
(Mike Posner + Blackbear)
e|-----------s---------------------------------------------------------------|
B|-----------s---------------------------------------------------------------|
G|-------7---s------7----------------7------7----------------6---------------|
D|-----------s------9----------------9-----------------------7---------------|
A|-5h7/9-----s---------------------------------------------------------------|
E|-----------s---------------------------------------------------------------|

e|-----------s---------------------------------------------------------------|
B|-----------s---------------------------------------------------------------|
G|-------7---s------7----------------7------7----------------6----6b---------|
D|-----------s------9----------------9-----------------------7---------------|
A|-5h7/9-----s---------------------------------------------------------------|
E|-----------s---------------------------------------------------------------|

(1:50) 
e|--------------------------------------------------------------------------|
B|--------------------------------------------------------------------------|
G|--------14p12---12p11---11p9---9p7------------------7---------------------|
D|------------------------------------------------7h9-----------------------|
A|--------------------------------------------------------------------------|
E|--------------------------------------------------------------------------|

[Chorus]
e|-----------s---------------------------------------------------------------|
B|-----------s---------------------------------------------------------------|
G|-------7---s------7----------------7------7----------------6---------------|
D|-----------s------9----------------9-----------------------7---------------|
A|-5h7/9-----s---------------------------------------------------------------|
E|-----------s---------------------------------------------------------------|

e|-----------s---------------------------------------------------------------|
B|-----------s---------------------------------------------------------------|
G|-------7---s------7----------------7------7----------------6----6b---------|
D|-----------s------9----------------9-----------------------7---------------|
A|-5h7/9-----s---------------------------------------------------------------|
E|-----------s---------------------------------------------------------------|

[Outro]
e|-----------s---------------------------------------------------------------|
B|-----------s---------------------------------------------------------------|
G|-------7---s------7----------------7------7----------------6---------------|
D|-----------s------9----------------9-----------------------7---------------|
A|-5h7/9-----s---------------------------------------------------------------|
E|-----------s---------------------------------------------------------------|

e|-----------s---------------------------------------------------------------|
B|-----------s---------------------------------------------------------------|
G|-------7---s------7----------------7------7----------------6----6b---------|
D|-----------s------9----------------9-----------------------7---------------|
A|-5h7/9-----s---------------------------------------------------------------|
E|-----------s---------------------------------------------------------------|



************************************

| h  Hammer-on
| /  Slide up
| b  Bend
| p  Pull-off

************************************

            
            
Suggest correction
Creating personal tab
Creating personal tab
You can edit any tab online and save it as your Personal.

You can edit, replace or remove any tab part or add personal notes – all changes will be seen only by you.

Personal tabs can be accessed anytime from any device, even offline.
Learn more »
comments
print report bad tab
5 comments total. Showing first comments.
0 reply
jordyn2m 148 Feb 06, 2017 07:14 PM

any corrections? lemme know. I realize this tab isnt perfect. :)

0 reply
flatezer 30 Jul 30, 2017 10:33 PM

These are the notes for the main riff. You can listen to the original and hear the low bass notes played simultaneously.

e|-----------s---------------------------------------------------------------|
B|-----------s---------------------------------------------------------------|
G|-------7---s------4----------------7-----------------------6---------------|
D|-----------s---------------------------------------------------------------|
A|-5h7/9-----s---------------------------------------------------------------|
E|-----------s------3----------------7-----------------------5---------------|

0 reply
thatgirlwhocriedwolf 10 Aug 31, 2017 12:02 AM

What do the S's mean?

guest
You may want to rate the tab now too:
select rating
Wanna post a correction for this tab? Suggest correction