Oops, an error
Loading. Please wait.

P2 bass

by Manteca
199 views 1 this week
no commentswrite comment
1 2 3 4 5
3 more votes to show rating
add to favorites
×
Save as Personal and add changes to this tab that will be seen only by you. Learn more ›
×
You can save this tab as Personal to edit and correct it or add notes. All changes will be seen only by you. Learn more »
launch autoscroll
font size
0
reset
guitar tuner
edit
Autoscroll
slow
fast
+/-
esc
set tempo
stop
Author
|----------------------------------------------------|
|----------------------------------------------------|
|------------------6---4-2---------------------------|
|--2---5---4-2-0-----------2---5---4-2-0--2-0----0-2-|
|---------------------------------------------4------|
|----------------------------------------------------|x 8

Similar to "The Other One", this riff is also actually on bass clarinet.
It's actually an octave lower too but, in the words of the wise Henry Heillig himself,
it's a lot easier to play it an octave up and have it not sound like a dull throb or a 
truck backing up.
Unless that's what you were going for, of course.

|-----------------------------------------------------------|
|-----------------------------------------------------------|
|--0-0-0-0-0-0-0-0-7--6--0-0-0-0-4--2--0--0-------0---------|
|-------------------------------------------4-2-0---0-4-2-0-|
|-----------------------------------------------------------|
|-----------------------------------------------------------| x 4

This is no longer a bass tab, I just like all the riffs in this song
The above riff is played by the alto flute for the first two times,
then by both the alto flute and the soprano saxophone for the next two times!

|--------------------------------------------------------------|
|--------------------------------------------------------------|
|--0-0---0-0-0---0-0-7--6--0-0-0-0-4--2--0---------------------|
|--------------------------------------------4-2---4-2-4-2-0---|
|------------------------------------------------4-----------4-|
|--------------------------------------------------------------|

The riff changes slightly after the soprano sax solo, but not by much.

|--------------------------------------------------
|--------------------------------------------------
|--0---0--0-4-5-7-0--0--0-5-7-9-0--0--0-7-9-11-0--0
|--------------------------------------------------
|--------------------------------------------------
|--------------------------------------------------

-------------------------------------------------------------------------------------|
-------------------------------------------------------------------------------------|
---0-4-5-7-0-9-0-11-0-12-0-14-0-16-0-17-0-0-16-14-0-0-14-12-0-0-12-11-0-0-11-9-0-0---|
-----------------------------------------------------------------------------------4-|
-------------------------------------------------------------------------------------|
-------------------------------------------------------------------------------------| x 2

There are some really cool bass fills throughout the song as well,
but I won't make the bass tab too outrageous by adding an actual bass tab into it...
I've run out of time, I hope you can work with this part of the tab and enjoy jamming!
Long live Manteca!
~ Alex D.

Website: http://www.manteca-music.com/
Suggest correction
Creating personal tab
Creating personal tab
You can edit any tab online and save it as your Personal.

You can edit, replace or remove any tab part or add personal notes – all changes will be seen only by you.

Personal tabs can be accessed anytime from any device, even offline.
Learn more »
Give kudos to tab author, rate the tab!
1 2 3 4 5
comments
print report bad tab
guest
You may want to rate the tab now too:
select rating
Wanna post a correction for this tab? Suggest correction