Oops, an error
Loading. Please wait.

Pentamento bass

by Manteca
110 views 3 this week
no commentswrite comment
1 2 3 4 5
3 more votes to show rating
add to favorites
×
Save as Personal and add changes to this tab that will be seen only by you. Learn more ›
×
You can save this tab as Personal to edit and correct it or add notes. All changes will be seen only by you. Learn more »
launch autoscroll
font size
0
reset
guitar tuner
edit
Autoscroll
slow
fast
+/-
esc
set tempo
stop
Author
Difficulty
Just so this tab makes sense, remember that the song is in 5/4 time,
the notes basically just fall on the first (1) and fourth (4) beats of that rhythm

|----------------|
|----------------|
|----------------|
|----------------|
|--3---3--3---3--|
|----------------| x 16 or something; some even number

|----------------------------------------------------------|
|----------------------------------------------------------|
|----------------------------------------------------------|
|----------------------------------------------------------|
|--3---3--3---3--1---1--1---1----------------3---3--3---3--|
|------------------------------2---2--2---2----------------| x 2 or so

Played behind the flute, obviously

Then...

|------------------------------|
|------------------------------|
|------------------------------|
|--1---1--1---1----------------|
|----------------4---4--4---4--|
|------------------------------| x 2

|----------------------------------------------------------|
|----------------------------------------------------------|
|----------------------------------------------------------|
|--1---1--1---1--4---3--1----------------------------------|
|--------------------------------------------2---2--2---2--|
|---------------------------2--4---4--4---4----------------|

Then this again!

|----------------------------------------------------------|
|----------------------------------------------------------|
|----------------------------------------------------------|
|----------------------------------------------------------|
|--3---3--3---3--1---1--1---1----------------3---3--3---3--|
|------------------------------2---2--2---2----------------| x 2

|------------------------------|
|------------------------------|
|------------------------------|
|--1---1--1---1----------------|
|----------------4---4--4---4--|
|------------------------------| x 2

|----------------------------------------------------------|
|----------------------------------------------------------|
|----------------------------------------------------------|
|--1---1--1---1--4---3--1----------------------------------|
|--------------------------------------------2---2--2---2--|
|---------------------------2--4---4--4---4----------------|

|----------------|
|----------------|
|----------------|
|----------------|
|--3---3--3---3--|
|----------------| x A heck of a lot

Then - hey, ya know, why not this again? Let's give the flute a nice solo...

|----------------------------------------------------------|
|----------------------------------------------------------|
|----------------------------------------------------------|
|----------------------------------------------------------|
|--3---3--3---3--1---1--1---1----------------3---3--3---3--|
|------------------------------2---2--2---2----------------| x 2

|------------------------------|
|------------------------------|
|------------------------------|
|--1---1--1---1----------------|
|----------------4---4--4---4--|
|------------------------------| x 2

|----------------------------------------------------------|
|----------------------------------------------------------|
|----------------------------------------------------------|
|--1---1--1---1--4---3--1----------------------------------|
|--------------------------------------------2---2--2---2--|
|---------------------------2--4---4--4---4----------------|

Then some stuff happens, just fooling around with the C, Bb, F#, C pattern, and then...

|------------------------------|
|------------------------------|
|------------------------------|
|--1---1--1---1----------------|
|----------------4---4--4---4--|
|------------------------------| x 2

|----------------------------------------------------------|
|----------------------------------------------------------|
|----------------------------------------------------------|
|--1---1--1---1--4---3--1----------------------------------|
|--------------------------------------------2---2--2---2--|
|---------------------------2--4---4--4---4----------------|

...twice!

|------------------------------|
|------------------------------|
|------------------------------|
|--1---1--1---1----------------|
|----------------4---4--4---4--|
|------------------------------| x 2

|----------------------------------------------------------|
|----------------------------------------------------------|
|----------------------------------------------------------|
|--1---1--1---1--4---3--1----------------------------------|
|--------------------------------------------2---2--2---2--|
|---------------------------2--4---4--4---4----------------|

|----------------|
|----------------|
|----------------|
|----------------|
|--3---3--3---3--|
|----------------| x Repeat to fade

And there's another great Manteca song YOU can now stumble through! Yay!
Such a great song; a soothing Celtic breezy feel to it, so smooth that it doesn't even 
feel like it's in an odd time signature...
But yeah, just make sure you get locked in the 1 and 4 beat pocket, and everything will 
be fine!
Colleen played flute on this song at the Sean O'Sullivan theatre in St. Catharines a 
couple nights ago, and it sounded just magnificent - great job!
Jam on!
~ Alex D.

Website: http://www.manteca-music.com/

            
            
Suggest correction
Creating personal tab
Creating personal tab
You can edit any tab online and save it as your Personal.

You can edit, replace or remove any tab part or add personal notes – all changes will be seen only by you.

Personal tabs can be accessed anytime from any device, even offline.
Learn more »
Give kudos to tab author, rate the tab!
1 2 3 4 5
comments
print report bad tab
guest
You may want to rate the tab now too:
select rating
Wanna post a correction for this tab? Suggest correction