Oops, an error
Loading. Please wait.

Me Gustas Tu Tab

version 1
version 1

Intro

Whole song

Interactive

36,415 views 21 this week
3 commentsread comments
1 2 3 4 5
x 6
add to favorites
launch autoscroll
font size
0
reset
how to read this tab
guitar tuner
×
Best way to learn
"Me Gustas Tu"
Autoscroll
slow
fast
+/-
esc
set tempo
stop
------2-----0---0---7---0-------------
--0------------------------0--3--2----
---------2----------------------------
--------------------------------------
--------------------------------------
--------------------------------------

------2-----0---0---7---0-------------
--0------------------------0--3--2----
---------2----------------------------
--------------------------------------
--------------------------------------
--------------------------------------

------2-----0---0---7---0-------------
--0------------------------0--3--2----
---------2----------------------------
--------------------------------------
--------------------------------------
--------------------------------------

Repeat this all the song!
Made by Daniel Santos.
Amo-te Marta.
If you find any error please tell me
arrobas@mail.pt
Suggest correction
comments
print report bad tab
3 comments total.
+2 reply
Cat Biscuits 10 Dec 09, 2004 07:00 PM

Much easier so you dont have to move around a lot...
------------0---0---7---0-------------
--0---7--------------------0----------
------------------------------7--6----
---------7----------------------------
--------------------------------------
--------------------------------------

+1 reply
jur 10 May 29, 2007 05:24 AM

PS the chords to it are Bm A Em Em ;)

0 reply
larogero 31 Jul 05, 2007 09:54 AM

very poor... where are the chords? You just put the solo voice.

guest
You may want to rate the tab now too:
select rating
Wanna post a correction for this tab? Suggest correction