Oops, an error
Loading. Please wait.

Aunque No Estes Tab

30 views 1 this week
no commentswrite comment
1 2 3 4 5
3 more votes to show rating
add to favorites
×
Save as Personal and add changes to this tab that will be seen only by you. Learn more ›
×
You can save this tab as Personal to edit and correct it or add notes. All changes will be seen only by you. Learn more »
save as personal
new!
launch autoscroll
font size
0
reset
how to read this tab
guitar tuner
Autoscroll
slow
fast
+/-
esc
set tempo
stop
Intro   Riff 1

Riff 1
   E  B/D# C#m B  A               E  B/D# C#m B    A
e----------------------------------7-----------------------------11-
B-7/9--7-----------------------7-9---7---------------------------10-
G--------8/9--8--6-------6-8-9----------8/9--8--6p4-6-6h8p6/4-6-----
D--------------------7-9--------------------------------------------
A-------------------------------------------------------------------
E-------------------------------------------------------------------

E                  C#m
A pesar del tiempo, de no oírte y verte,
/B       A                /G#      F#m
he de confesar que pienso mucho en ti,
B                  /D#     E          /D#
y por más que intento, sacarte de mi mente,
A                          B   /B  /C#  /D#
con mas fuerza te quedas ahí.

Trato de olvidarte, solo recordando
los errores y defectos que hubo en ti,
pero son tan fuertes, los buenos momentos,
que sin darme cuenta te fundes en mí.

CORO (2)
            E      /D#m    C#m
Aunque no estés, estas aquí,
B         A   G#m        F#m
yo amándote, aunque no estés,
            B     B/D#     E      A    B
aunque no estés, yo sigo aquí esperándote.

Inter   C#m   /B   A    B

A veces intento, como algo pendiente,
sacudirme la nostalgia, decir adiós;
y como un sediento, bebo de tu recuerdo,
y ya que estas adentro, me siento mejor.

CORO (1)
             ...G#7
PUENTE
C#m                            B
Me engañará otro cuerpo, me confundo, en otras bocas,
A                                        G#7
me pierdo en otras manos, me desvío en otros pasos;
C#m                            B
por qué deje tu cuerpo, por qué, deje tu boca,
A                               B         C#
por qué perdí tus manos, si te amo, te amo.

CORO (2)  (en F#)
            F#      /F    D#m
Aunque no estés, estas aquí,
C#         B    F#/Bb        G#m
yo amándote, aunque no estés,
            C#             F#      B    C#
aunque no estés, yo sigo aquí esperándote.

FINAL Riff 2

Riff 2
   F#  /F  D#m  C#  B                 F#  /F  D#m   C#  B                 F#
e-------------------------------------------9-------------------------------
B-9/11--9------------------------------9-11---9-----------------------------
G--------10/11--10-8p6-8-------8-10-11----------10/11--10--8p6-8--10--11--11
D-------------------------9-11----------------------------------------------
A---------------------------------------------------------------------------
E---------------------------------------------------------------------------
Suggest correction
Give kudos to tab author, rate the tab!
1 2 3 4 5
comments
print report bad tab
guest
Wanna post a correction for this tab? Suggest correction