Oops, an error
Loading. Please wait.

Solamente Un Hombre Tab

14 views 1 this week
no commentswrite comment
1 2 3 4 5
3 more votes to show rating
add to favorites
launch autoscroll
font size
0
reset
how to read this tab
guitar tuner
×
Best way to learn
"Solamente Un Hombre"
Autoscroll
slow
fast
+/-
esc
set tempo
stop
INTRO CON BAJEO:
               C         C/B     Am     G                C       
E -----------------------------------------------------------|
B -----------------------------------------------------------|
G -----------------------------------------------------------|
D -----------------------------------------------------------|
A -------3--5--3-------3--2------------------------3--5--3---|
E -3--5-------------3---------3--5---1--3----3--5------------|
                                                       

    C  C/B     Am           G
Después  de ti todo cuesta más
    C  C/B     Am         G
después  de ti duele respirar

E -----------------|
B -----------------|
G -----------------|
D -----------2-----| (BAJEO)
A --------3-----5--|
E --3--5-----------|

Dm          G     Em          Am
no consigo reunir suficientes ánimos
Dm         G             C
para ser apenas el que fui.

E -----------------|
B -----------------|
G -----------------|
D -----------------| (BAJEO)
A --------3--5--3--|
E --3--5-----------|

    C  C/B     Am          G   
Después  de ti necia libertad
    C  C/B     Am          G
después  de ti la inseguridad,

E -----------------|
B -----------------|
G -----------------|
D -----------2-----| (BAJEO)
A --------3-----5--|
E --3--5-----------|

Dm             G       Em         Am
como puede un jugador apostar el corazón
Dm          G           C
y perderlo siempre, dímelo.

E -----------------|
B -----------------|
G -----------------|
D -----------------| (BAJEO)
A --------3--5--3--|
E --3--5-----------|


 C                       F
Soy un hombre igual que los demás
Dm                G             C  G
soy solamente un hombre bien o mal,
                C                   F
que lo voy a hacer si tengo que volver
Dm              G         C         C7
a comenzar de nuevo sin saber para qué
                 F      Dm         C  G
siempre acabo igual llorando por amor.

(REQUINTO)

  C  C/B       Am         G
Abrir  el gas, apagar la luz
    C  C/B      Am           G
después  dormir como hiciste tú,

E -----------------|
B -----------------|
G -----------------|
D -----------2-----| (BAJEO)
A --------3-----5--|
E --3--5-----------|

Dm             G        Em            Am
de que sirve estar aquí aceptando el vértigo
Dm               G       C
de esta inútil desesperación.

E -----------------|
B -----------------|
G -----------------|
D -----------------| (BAJEO)
A --------3--5--3--|
E --3--5-----------|

 C                       F
Soy un hombre igual que los demás
Dm                G             C  G
soy solamente un hombre bien o mal,
                C                   F
que lo voy a hacer si tengo que volver
Dm              G         C         C7
a comenzar de nuevo sin saber para qué
                 F      Dm         C  G
siempre acabo igual llorando por amor,

E -----------------|
B -----------------|
G -----------------|
D -----------------| (BAJEO)
A --------3--5--3--|
E --3--5-----------|

 C                       F
soy un hombre igual que los demás
Dm                G             C  G
soy solamente un hombre bien o mal,
                C                   F
que lo voy a hacer si tengo que volver
Dm            
a comenzar de . . . etc.
Suggest correction
Give kudos to tab author, rate the tab!
1 2 3 4 5
comments
print report bad tab
guest
You may want to rate the tab now too:
select rating
Wanna post a correction for this tab? Suggest correction