Oops, an error
Loading. Please wait.

Donde Quiera Que Estes Tab

236 views 1 this week
no commentswrite comment
1 2 3 4 5
3 more votes to show rating
add to favorites
launch autoscroll
font size
0
reset
how to read this tab
guitar tuner
×
Best way to learn
"Donde Quiera Que Estes"
Autoscroll
slow
fast
+/-
esc
set tempo
stop
Estoy bastante seguro de que en realidad va en SOL

Introduccion

e-2/3---3-2-0--2-2-2-----0-2h3p2---0------!
b---------------------0--------------0----!
g-----------------------------------------!
D-----------------------------------------!
A-----------------------------------------!
E-----------------------------------------!

e-----------------------------------------!
b------------0-0-0--1--3---0--------------!
g-2-2---0-0-------------------------------!
D-----------------------------------------!
A-----------------------------------------!
E-----------------------------------------!

e-----------------------------------------!
b-----0-----------------------------------!
g-0-0---2-0-2-0-0-------------------------!
D-----------------------------------------!
A-----------------------------------------!
E-----------------------------------------!


[ch]G             [ch]Bm         [ch]C[/ch]                 SOL[/ch]  RE[/ch]
Cada vez que te veo partir  algo se quiebra en mi
[ch]Em         sis7m    [ch]C        LA/SOL[/ch]   [ch]D[/ch]  RE4[/ch]                    
y preciso cicatrizar noches de soledad

-Las estrofas van todas con los mismos acordes

Tomo un taxi hasta algún café, tomo algo antes de volver
y después trato de dormir y no puedo dejar de pensar

ESTRIBILLO.
[ch]Em             [ch]B                    MIm       MIm7[/ch]      MIm6[/ch]
Amor......donde quiera que estes deja la duda y vuelve a mi
        [ch]G      [ch]D[/ch]   RE4[/ch]  
que yo estoy esperandote, 
       [ch]C       [ch]D[/ch]   SOL[/ch]
que yo sigo esperandote

FRASE 1 
e-----------------------------------------!
b-----------------------------------------!
g-----------------------------------------!
D-----------------------------------------!
A-2-0-------------------------------------!
E-----3-0---3/5---3-----------------------!

Un minuto antes de dormir tu recuerdo siempre vuelve a mi
fotos viejas en eu cajón que no quiero volver a abrir
Vuelvo al piano y toco sin querer la misma canción de ayer
como cartas que no escribiré como un sueño que no alcanzaré

ESTRIBILLO.

[ch]G             [ch]B                    [ch]Em[/ch]       MIm7[/ch]      MIm6[/ch]
Amor......donde quiera que estes deja la duda y vuelve a mi
        [ch]G      [ch]D[/ch]   RE4[/ch]  
que yo estoy esperandote, 
       [ch]C       [ch]D[/ch]   SOL[/ch]
que yo sigo esperandote

[ch]G             [ch]B                    [ch]Em[/ch]       MIm7[/ch]      MIm6[/ch]
Amor......donde quiera que estes deja la duda y vuelve a mi
        [ch]G      [ch]D[/ch]   RE4[/ch]  
que yo estoy esperandote, 
       [ch]C       [ch]D[/ch]   MIm[/ch]
que yo sigo esperandote       NO!!!!

SOLO (armado de buena distorsion)

e--------------------------------12-------!
b-----10b-12---10b12r10p8h10b12r----------!
g-----------------------------------------!
D-----------------------------------------!
A-----------------------------------------!
E-----------------------------------------!

e--10b12r10--8--10--10b12r10p8-10b12r10-13!
b-----------------------------------------!
g-----------------------------------------!
D-----------------------------------------!
A-----------------------------------------!
E-----------------------------------------!

ESTRIBILLO.

[ch]A               [ch]C#                  [ch]F#m[/ch]      FA#m7[/ch]      FA#m6[/ch]
Amor......donde quiera que estes deja la duda y vuelve a mi
       [ch]A[/ch]             [ch]E[/ch]  
que yo estoy esperandote, 
       [ch]D       [ch]E[/ch]   LA[/ch]
que yo sigo esperandote


[ch]A               [ch]C#                  [ch]F#m[/ch]      FA#m7[/ch]      FA#m6[/ch]
Amor......donde quiera que estes deja la duda y vuelve a mi
       [ch]A[/ch]             [ch]E[/ch]  
que yo estoy esperandote, 
       [ch]D          MI[/ch]   
que yo sigo esperando
       [ch]F#m[/ch]     [ch]E[/ch]
que yo sigo esperando
       [ch]D       [ch]E   [ch]A[/ch]          MI[/ch]            LA[/ch]
que yo sigo esperandote..........Uh!...........Ah!!!


Eso creo que es bastante parecido......QUE LO DISFRUTEN!! 
Dudas,comentario : ladiscepolo@

DEDICADO PARA ROSITA;SOBRE TODO LOS PRIMEROS VERSOS
Suggest correction
Give kudos to tab author, rate the tab!
1 2 3 4 5
comments
print report bad tab
guest
You may want to rate the tab now too:
select rating
Wanna post a correction for this tab? Suggest correction