Oops, an error
Loading. Please wait.

Verde Que Te Quiero Verde Tab

536 views 6 this week
no commentswrite comment
1 2 3 4 5
3 more votes to show rating
add to favorites
launch autoscroll
font size
0
reset
how to read this tab
guitar tuner
Autoscroll
slow
fast
+/-
esc
set tempo
stop
6/-----------------/-----------------/-----------------/-
5/-----------------/-----------------/-----------------/-
4/-----------------/-----------------/-----------------/-
3/-2-2-2-2-2-------/-----------------/-----------------/-
2/-----------0-1-1-/---------------3-/-0-0-0-0-0-1-3-3-/-
1/-----------------/-0-0-0-0-1-0-0---/-----------------/-


6/---------------------/-----------------/-----------------/-
5/---------------------/-----------------/-----------------/-
4/---------------------/-----------------/-----------------/-
3/---------------------/-----------------/-----------------/-
2/---------------------/-------3-3-1-3---/-------3-3-1-3---/-
1/-1-1-1-1-3-1-1-0-1-0-/-0-0-0---------0-/-0-0-0---------0-/-


6/-------------/-
5/-------------/-
4/-------------/-
3/-----------2-/-
2/-3-3-3-1-0---/-
1/-------------/-


ESPERO QUE OS GUSTE.... ME HE CALENTADO MUCHO LA CABEZA...
UN SALUDO PARA EL BOTIJO....
Suggest correction
Give kudos to tab author, rate the tab!
1 2 3 4 5
comments
print report bad tab
guest
You may want to rate the tab now too:
select rating
Wanna post a correction for this tab? Suggest correction