Oops, an error
Loading. Please wait.

90-60 Anorexia Tab

21 views 1 this week
no commentswrite comment
1 2 3 4 5
3 more votes to show rating
add to favorites
launch autoscroll
font size
0
reset
how to read this tab
guitar tuner
Autoscroll
slow
fast
+/-
esc
set tempo
stop
Help us to improve Ultimate-Guitar.com Take our survey!
×
         G5
Revistas póster y TV
        E5
invaden otra vez su ser
       A5
enseñándole a vomitar
    D5
y a dejar de comer

(Sigue todo tema igual)

esqueletos que desfilan
en su mente otra vez
comiéndole su cerebro
y ella deja comer

muchas mas cayeron
y otras mas siguen de pie
al igual que una guerra
que ella perdió

ESTRIBILLO
       G5
La anorexia la mato      |
      E5
y la TV la obligo        |
      A5
a vomitar lo que comió   |  X2
    D5
y a dejar de pensar      |

Por que aquí todo sigue igual
por que aquí nada cambio
si entro un buen dinero
no importa quien murió

son los grandes mercaderes
que imponen condición
ella quiso ser modelo
ella se murió

ESTRIBILLO

Solo:
e --3-5-7-5---5-------5-7-8-7-8-10-8-7-5-7-5-7-5-7-5-7-
B ----------8---8-5-8----------------------------------
G -----------------------------------------------------
D -----------------------------------------------------
A -----------------------------------------------------
E -----------------------------------------------------

e ----------------------------------------------------
B ----------------------------------------------------
G ------4---------------4-5-4-5-7-5-4-----------------
D --5-7---7-5-7-5---5-7---------------7-9-7-9-7-9-7-9-
A --------------7-------------------------------------
E ----------------------------------------------------

e ---------------------------------------------------
B ---------------------------------------------------
G ---------------------------------------------------
D ---------------------------------------------------
A -----2---------------2-3-2-3-5-3-2-0-2-0-2-0-2-0-2-
E -3-5---5-3-5-3-0-3-5-------------------------------

e ---------------------------------------------------
B ---------------------------------------------------
G ---------------------------------------------------
D ---------------------------------------------------
A -----2---------------2-3-2-3-5-3-2-0--2-3-2-3-2-3--
E -3-5---5-3-5-3-0-3-5-------------------------------

e -------------------------------------------------------------
B -------------------------------------------------------------
G -------------------------------------------------------------
D -----------------------------------------------------------5-
A ---2-3-2-3-2-3---2-3-2-3-2-3---2-3-2-5-3-2-----2-3-5-3-2---5-
E -3-------------3-------------5-------------5-5-----------5-3-

2 Estrofas sin viola

ESTRIBILLO

Revistas póster y TV    |
invaden otra vez su ser |x2
enseñándole a vomitar   |
y a dejar de comer      |

BUENO GENTE, ESTO ES TODO EL TEMA... ESPERO Q LES SIRVA Y Q
LES GUSTE...
NADA MAS, UN SALUDO PARA TODA LA GENTE DE BUEN DIA Q SE LOS QUIERE
BANDA...
MUCHISIMA SUERTE A TODOS, Y AGUANTE LA VELA, EL PITY Y TODO
EL ROCK AND ROLL  ARGENTINO VIEJA....
Suggest correction
Give kudos to tab author, rate the tab!
1 2 3 4 5
comments
print report bad tab
guest
You may want to rate the tab now too:
select rating
Wanna post a correction for this tab? Suggest correction