Oops, an error
Loading. Please wait.

De Ti, De Ti (Carlotta) Tab

10 views 1 this week
no commentswrite comment
1 2 3 4 5
3 more votes to show rating
add to favorites
launch autoscroll
font size
0
reset
how to read this tab
guitar tuner
×
Best way to learn
"De Ti, De Ti (Carlotta)"
Autoscroll
slow
fast
+/-
esc
set tempo
stop
Intro

-Se repite 3 veces-

   C#m
1/-9-------------9-------------9-------------9------------
2/---10-12-10-12---10-12-10-12---10-12-10-12---10-12-10-9-
3/--------------------------------------------------------
4/--------------------------------------------------------
5/--------------------------------------------------------
6/--------------------------------------------------------
   Bm
1/-7------------------------------------------------------
2/---9-10-9--9-10-9-9--9-10-9-9--9-9-10-9-10-9-10-9-10----
3/--------------------------------------------------------
4/--------------------------------------------------------
5/--------------------------------------------------------
6/--------------------------------------------------------


       C#m
Que cruel es

Enamorarse de alguien
                        Bm
Que no siente nada por tí,

Por tí, por tí, por tí

C#m
Es como ver

Tu sangre correr
                           Bm
Tu sangre, lejos lejos de tí

De tí, de tí, de tí

C#m
Es como un hoyo de entrada

De tu alma uno que
                   Bm
Uno que no quiere cerrar

C#m
Es como una flor
                      Bm
Que se marchita al recordar


-Se repite 7 veces-

   C#m
1/-9-------------9-------------9-------------9------------
2/---10-12-10-12---10-12-10-12---10-12-10-12---10-12-10-9-
3/--------------------------------------------------------
4/--------------------------------------------------------
5/--------------------------------------------------------
6/--------------------------------------------------------
   Bm
1/-7------------------------------------------------------
2/---9-10-9--9-10-9-9--9-10-9-9--9-9-10-9-10-9-10-9-10----
3/--------------------------------------------------------
4/--------------------------------------------------------
5/--------------------------------------------------------
6/--------------------------------------------------------


-Como algo extra las notas graves del piano hacen esto
 a lo largo de toda la canción-

   C#m                     Bm
1/---------------------------------------------
2/---------------------------------------------
3/---------------------------------------------
4/-11-9--11-9--11-9--11-9----------------------
5/-------------------------12-11--12-11--12-11-
6/---------------------------------------------
Suggest correction
Give kudos to tab author, rate the tab!
1 2 3 4 5
comments
print report bad tab
guest
You may want to rate the tab now too:
select rating
Wanna post a correction for this tab? Suggest correction