Oops, an error
Loading. Please wait.

A Dios Tab

19 views 1 this week
no commentswrite comment
1 2 3 4 5
3 more votes to show rating
add to favorites
launch autoscroll
font size
0
reset
how to read this tab
guitar tuner
Autoscroll
slow
fast
+/-
esc
set tempo
stop
Help us to improve Ultimate-Guitar.com Take our survey!
×
INTRO :

E|--------1-----3p1------------
B|------1---1-------1-------1--
G|----2-------2-------2---2----            Se repite 3 veces
D|--3-------------------3------
A|-----------------------------
E|-----------------------------

Dm                   Am
QUIERO FLOTAR EN TUS MARES
              A#
VOLAR EN TUS BRAZOS
             C       F
GRITARLE MIS PENAS A DIOS OH OH OH

Dm                     G
QUIERO CORRER CUERPO A TIERRA
              C
ROMPER TUS ENTRAÑAS
                A#          C
GOLPEAR CUANTO LLUEVA ALREDEDOR

E|--------1-----3p1---------
B|------1---1-------1-------
G|----2-------2-------2-----
D|--3-------------------3---
A|--------------------------
E|--------------------------

Dm                   Am
QUIERO PARTIRTE EN PEDAZOS
              A#
GRITAR EN SILENCIO
             C       F
Y AHUYARLE MIS PE~AS A DIOS OH OH  OH

Dm                     G
QUIERO PATEAR MUY ADENTRO
              C
PISAR CUERPO A TIERRA
                A#          C
PISAR UN MIL CARAS ALREDEDOR

E|--------1-----3p1---------
B|------1---1-------1-------
G|----2-------2-------2-----
D|--3-------------------3---
A|--------------------------
E|--------------------------

RIFF:
D5-F5-D5-E5, F5-E5-D5, D5#-D5#-D5-C5-A5#, D5-A5#-C5, F5;
D5-A5-D5#-A5#, A5#-A5-G5-F5, D5-A5-D5-D5#, D5#-D5-C5-A5#, A5#, C5


E|--------1-----3p1---------
B|------1---1-------1-------
G|----2-------2-------2-----
D|--3-------------------3---
A|--------------------------
E|--------------------------


Dm                   Am
QUIERO PARTIR CON TUS ALAS
              A#
CORRER DE TU CUERPO
             C       F
QUEMAR EN SILENCIO MI  VOZ OH OH OH

Dm                     G
QUIERO MALDECIR TU NOMBRE
              C
MALDECIR EL MIO
                A#          C
Y PARTIR EN PEDAZOS LOS DOS

E|--------1-----
B|------1---1---
G|----2-------2-
D|--3-----------
A|--------------
E|--------------


Dm                   Am
QUIERO BENDECIR TU MUNDO
              A#
RESPIRAR DE TU AIRE
             C       F
Y AHUYARLE MIS PE~AS A DIOS OH OH OH

Dm                     G
QUIERO POR SIEMPRE JAMAS
              C
YO BUSCAR TU DESTINO
                A#          C
Y GRITAR DANDO VUELTAS A TU ALREDEDOR

E|--------
B|------1-
G|----2---
D|--3-----
A|--------
E|--------

Dm                   Am
QUIERO MORIR EN TUS ALAS
              A#
ROMPER TUS ENTRA~AS
             C       F
GRITARLE MIS PENAS A DIOS OH OH OH

Dm                     G
QUIERO VOLAR DE TUS BRAZOS
              C
ROGAR QUE TE VAYAS
                A#          C   (F - Dm)
MORIR FINALMENTE DE TU  VOZ
Suggest correction
Give kudos to tab author, rate the tab!
1 2 3 4 5
comments
print report bad tab
guest
You may want to rate the tab now too:
select rating
Wanna post a correction for this tab? Suggest correction