Oops, an error
Loading. Please wait.

Adios Amor Tab

74 views 1 this week
no commentswrite comment
1 2 3 4 5
3 more votes to show rating
add to favorites
launch autoscroll
font size
0
reset
how to read this tab
guitar tuner
×
Best way to learn
"Adios Amor"
Autoscroll
slow
fast
+/-
esc
set tempo
stop
INTRO:


    E  F#m                         (se puede tocar en 5tas o acordes)

e -------------------------------------
b -------------------------------------
g -------------------------------------  (x4)
d --2--4-4-4-4-4-4-4-4-4-4-4-4-4-4-4---
a --2--4-4-4-4-4-4-4-4-4-4-4-4-4-4-4---
e --0--2-2-2-2-2-2-2-2-2-2-2-2-2-2-2---

(a 3er y 4to tiempo la primera que hace esto,mientra la segunda sigue hacien la intro)

e --0--2----5--5---4--4---2--2-----
b ---------------------------------
g ---------------------------------
d ---------------------------------
a ---------------------------------
e ---------------------------------

Estrofa 1 :

     D  E   F#m           Bm         E             D                  E               A (E F#m)

     Adios amor......la claridad me va matar, la niebla espera  atraviese pronto su imán

 e ----------------------------------------------------------------------------------------
 b ----------------------------------------------------------------------------------------
 g ----------------------------------------------------------------------------------------
 d -0-2s(9)9-7-----------7-7-7---4--2--2--2-------2--2--2---0-------2---2--2--0--2---------
 a ------------------9-------------------------4-----------------4-------------------4-----
 e ----------------------------------------------------------------------------------------

 e ---------------------------------
 b ---------------------------------
 g ---------------------------------
 d ---------------------------------
 a -4-4-5--4h5-4h5-4--2-4-2--0------
 e ---------------------------------


        Bm           E        A                D                C#m           Bm            E

  tan suave es su color..cristales vuelan por todo el cielo tu rojo fuego se torna un solo sabor

e ---------------------------------------------------------------------------------------------
b ---------------------------------------------------------------------------------------------
g ---------------------------------------------------------------------------------------------
d -4--7-7-7--4----2---------2--2--2--0-------2--2--2--------2---2---2----0----------------------
a-----------------------4---------------4-------------4--------------------4--5--5--5--5---4--2-
e ----------------------------------------------------------------------------------------------


Estrofa 2:

   D  E   F#m            Bm          E             D             E               F#m

    Adios amor.....tu suavidad   me va faltar del sur invaden para  robarte  tu honor

 e ---------------------------------------------------------------------------------------
 b ---------------------------------------------------------------------------------------
 g ---------------------------------------------------------------------------------------
 d -0-2s(9)9-7-----------7-7-7---4--2--2--2-------2--2--2---0-----2---2--2--0--2----------
 a ------------------9-------------------------4---------------4--------------------4-----
 e ---------------------------------------------------------------------------------------

        Bm           E      A                 D               C#m

   tan clara era tu  voz,tu no presencia y tu no besarme y tu no abrazarme...

e --------------------------------------------------------------------------------
b --------------------------------------------------------------------------------
g --------------------------------------------------------------------------------
d -4--7---7--7---4----2------2--2--2---0-------2--2--2-0-------2---2---2--0-------
a-------------------------4-----------------4--------------4----------------------
e --------------------------------------------------------------------------------


     Bm             E

   seran mi gran tesoro

e ----------------------
b ----------------------
g ----------------------
d --4-5--5---5---5--4-2-
a ----------------------
e ----------------------


Coro :

F#m     D      A           E

               por el desierto del sol

F#m     D      A           E

                como    tesoro llevo

F#m     D      A           E

                sus besos hasta la muerte

F#m     D      A         E

                y hasta nunca mi amooooo

F#m     D      A           E

 ooooooooooooooooooooooooor


F#m D A Bm (solo se rasguea un vez cada nota)

F#m E  (dos tiempos cada nota)

F#m D A Bm (solo se rasguea un vez cada nota)

F#m E  (dos tiempos cada nota)


F#m D A Bm


    F#m          E

e ----2-2-2-----------------------
b --2---2-2---2--5--5--5-----------
g ---------------------------------
d ---------------------------------
a ---------------------------------
e ---------------------------------


F#m D A Bm


    F#m         E

e ----2-2-2----------------------
b --2---2-2--2--5--5--5-----------
g ---------------------------------
d ---------------------------------
a ---------------------------------
e ---------------------------------


Estrofa 3:

    D  E   F#m           Bm          E                D              E              F#m

    Adios amor......contento voy con un disfraz de flores rojas del lecho donde estaras

 e ---------------------------------------------------------------------------------------
 b ---------------------------------------------------------------------------------------
 g ---------------------------------------------------------------------------------------
 d -0-2s(9)9-7-----------7-7-7---4--2--2--2--------2--2--2---0-----2---2--2--0--2---------
 a ------------------9--------------------------4---------------4--------------------4----
 e ---------------------------------------------------------------------------------------

         Bm            E          A                 D                 C#m               Bm

   tan fuerte era tu amor que hasta la muerte y hasta la sangre y hasta el recuerdo de tu

e ----------------------------------------------------------------------------------------
b ----------------------------------------------------------------------------------------
g ----------------------------------------------------------------------------------------
d -4---7--7--7----4----2-------2--2---2----0-------2--2---2--0----2-----2----2---0--------
a--------------------------4-------------------4----------------4-------------------4--5--
e ----------------------------------------------------------------------------------------


                E

   alma llevan tu olor

e ---------------------------------
b ---------------------------------
g ---------------------------------
d ---------------------------------
a ---5---5--5---4---2---------------
e ---------------------------------


Repetir:

Coro X2

Repetir acordes de estrofa 1
Repetir acordes de estrofa 2

Comentarios,peticiones,interes en formar bandas, etc...(lima)...bracho_rhcp@
Suggest correction
Give kudos to tab author, rate the tab!
1 2 3 4 5
comments
print report bad tab
guest
You may want to rate the tab now too:
select rating
Wanna post a correction for this tab? Suggest correction