Oops, an error
Loading. Please wait.

Al Final De Un Dia Tab

12 views 1 this week
no commentswrite comment
1 2 3 4 5
3 more votes to show rating
add to favorites
launch autoscroll
font size
0
reset
how to read this tab
guitar tuner
Autoscroll
slow
fast
+/-
esc
set tempo
stop
Help us to improve Ultimate-Guitar.com Take our survey!
×
   Bm  A  Bm         D       A          Bm                  D       A           Bm

e -7---5--7--------------------------------------------------------------------------------
b -7---5--7--------------------------------------------------------------------------------
g -7---6--7----4-2-0-2-(2)----------------------------4-2-0-2-(2)--------------------------
d -9---7--9----------------0-2--2-0-2-4h5-4-2---------------------0-2--2-0-2--4h5-4-2------
a -9---7--9-----------------------------------5-2-------------------------------------5-2--
e -7---5--7--------------------------------------------------------------------------------


ESTROFA :

G            A               Bm               G              A           D      D-Dsus2-D-Dsus4-D
 Como los recuerdos...bagan sobre el cristal?...de mis ojos secos de mi soledad...(riff 1)

G            A             Bm
 como no te marchas de mi sangre vida?...(riff 2)

G             A              D         D-Dsus2-D-Dsus4-D
 como no te ocultas?...como no te vas?

G           A         Bm                       G                   A
 como la marea de tu pelo hondular?...(riff 3)...vuelve a mi con fuerza

           D          D-Dsus2-D-Dsus4-D
 vuelve a sin bagar

G                 A             Bm                G            A            A5
 como es que tu amor se ha marchado ya?...(riff4)...como digo yo ?...


CORO :

B5               E5                     F#5                     B5                      E5
  Galopando galopando en la orilla del mar...soy un ginete al viento de una tarde infernal...

            F#5                    G#5         B5
  ya nunca ve...su espalda en su caer...

                      E5                 F#5                       B5                    E5
  Lejos muy lejos de ti al final de un día es muy tarde cuando encuentre en el mar un lugar...

       F#5                     G#5
  tal vez mejor...tal vez avance...


ESTROFA 2 :

G                A         Bm         G                  A              D       D-Dsus2-D-Dsus4-D
 Como es que tu boca bezan otra boca?...como es que tus lavios aún los tengo yo?...(riff 5)

G               A            Bm
 presos de una carcel de imaginación...(riff 2)

G               A           D        D-Dsus2-D-Dsus4-D
 presos en un sueño que nunca paso...

G                A        Bm            G                  A           D        D-Dsus2-D-Dsus4-D
 como es que mi mano ozo decirte adios?...como es que tu cuerpo nunca se marcho?...(riff 6)

G                 A       Bm                      G            A
 como es que te veo si morimos los dos...(riff 4)...como digo yo?


CORO :

B5               E5                     F#5                     B5                      E5
  Galopando galopando en la orilla del mar...soy un ginete al viento de una tarde infernal...

            F#5                    G#5         B5
  ya nunca ve...su espalda en su caer...

                      E5                 F#5                       B5                    E5
  Lejos muy lejos de ti al final de un día es muy tarde cuando encuentre en el mar un lugar...

       F#5                     G#5  E5              F#5                   Bm
  tal vez mejor...tal vez avance...    tal vez avance...tal vez avance


             D       A          Bm                  D       A           Bm

e ---------------------------------------------------------------------------------
b ---------------------------------------------------------------------------------
g -----4-2-0-2-(2)----------------------------4-2-0-2-(2)--------------------------
d -----------------0-2--2-0-2-4h5-4-2---------------------0-2--2-0-2--4h5-4-2------
a ------------------------------------5-2-------------------------------------5-2--
e ---------------------------------------------------------------------------------


Riff 1 :

e ---------2-------
b -0h3h(5)---3-----
g -----------------
d -----------------
a -----------------
e -----------------

riff 2 :

e ----------------------
b --5f--5f--3-----------
g ------------2s4-(4)---
d ----------------------
a ----------------------
e ----------------------

riff 3 :

e -----------------
b -----------------
g -2--2------------
d -------4s(5)-----
a -----------------
e -----------------

riff 4 :

e -------------------------------
b -------------------------------
g -2-s-(4)-4---2-s-4--(4)--------
d -2-s-(4)-4---2-s-4--(4)--------
a -------------------------4h5---
e -------------------------------

riff 5 :

e -----0h2---------
b ---------3-------
g -0h2-------0-----
d -----------------
a -----------------
e -----------------

riff 6 :

e -2h3p2-----------------
b -------3-3h5p3---------
g ---------------4-2-----
d -------------------4h5-
a -----------------------
e -----------------------


Comentariso,peticiones,interes en formar banda...(lima)...bracho_rhcp@
Suggest correction
Give kudos to tab author, rate the tab!
1 2 3 4 5
comments
print report bad tab
guest
You may want to rate the tab now too:
select rating
Wanna post a correction for this tab? Suggest correction