Oops, an error
Loading. Please wait.

Al Pasar De Las Horas Tab

71 views 3 this week
no commentswrite comment
1 2 3 4 5
3 more votes to show rating
add to favorites
launch autoscroll
font size
0
reset
how to read this tab
guitar tuner
×
Best way to learn
"Al Pasar De Las Horas"
Autoscroll
slow
fast
+/-
esc
set tempo
stop
Intro

F#m  Bm

Luego del intro entra la guitarra eléctrica con distorsion,
aquí Wicho va soltando el dedo índice
Riff 1
e-----------------------------------------------------------------
b ----------------------------------------------------------------
g --------------------------------4-4-4-4-4-4-4-4-4-4-4-4-4-4-4-4-
d --4-4-4-4-4-4-4-4-4-4-4-4-4-4-4-4-4-4-4-4-4-4-4-4-4-4-4-4-4-4-4-
A --4-4-4-4-4-4-4-4-4-4-4-4-4-4-4-0-2-2-2-0-2-2-2-0-2-2-2-0-2-2-2-
E --2-2-2-0-2-2-2-0-2-2-2-0-2-2-2---------------------------------
Esto se hace solo una vez y luego se rasguea con distrorsion

F#m          Bm
Tratar de no pensar
F#m                            Bm
en noches en que sin mirar encuentras sombras
E                                A
un joven de sal se ahoga en sus mares salados
C#m                           D
bestias corren mil por mi cabeza
E
maldita luna    (Riff 1)


F#m            Bm    E                A
tratar de no pensar y al pasar de las horas
D               E                                F#m  Bm
tu presencia no esta y me pesa tanto como el mar (Riff 1)
F#m             Bm   E                A
tendido sobre el mar al compás de las olas
D               E                                A
tu presencia se va entre espuma fresca, arena y sal
C#m                           D
bestias corren mil por mi cabeza
E
y me están matando

A    C#m            D                   E
ya llegó el dia de partir y de decirte adiós
                  A
es cruel un desenlace al fin
               C#m                  D
mi vida se llevo, mis labios  ya no son
                E                           F#m
el beso de tus labios va ahora de cuarto en cuarto

Intro

F#m  Bm

(Riff 1)

Solo
e ------------------------------------------------------
b ------------------------------------------------------
g ------------------------------------------------------
d -4~--7-4-7-4-7-4-7-4~--7-4-7-4-7-4-7-4~--7-4-7-4-7-4-7
A ------------------------------------------------------
E ------------------------------------------------------


e -----------------------------------------
b -----------------------------------------
g -/4-6-4----------------------------------
d --------7~------4~---2-4-4-4~--2-4-4-4~--
A -----------------------------------------
E -----------------------------------------

F#m            Bm    E                A
Tratar de no pasar y algo me está pasando
D               E                                .A
tu presencia se va y me lleva hasta el fondo del mar
C#m                           D
bestias corren mil por mi cabeza
E
y me están matando

A    C#m            D                   E
ya llegó el dia de partir y de decirte adiós
                  A
es cruel un desenlace al fin
               C#m                  D
mi vida se llevo, mis labios  ya no son
                E                           F#m
el beso de tus labios va ahora de cuarto en cuarto
Suggest correction
Give kudos to tab author, rate the tab!
1 2 3 4 5
comments
print report bad tab
guest
You may want to rate the tab now too:
select rating
Wanna post a correction for this tab? Suggest correction