Oops, an error
Loading. Please wait.

Balada De Un Encuentro Fugaz Tab

version 1
version 1

Whole song

112 views 3 this week
no commentswrite comment
1 2 3 4 5
3 more votes to show rating
add to favorites
launch autoscroll
font size
0
reset
how to read this tab
guitar tuner
Autoscroll
slow
fast
+/-
esc
set tempo
stop
Help us to improve Ultimate-Guitar.com Take our survey!
×
Para toda la gentita listera, aquí esta la corrección 
del tab del ultimo single de Mar de Copas?Balada de un encuentro fugaz, 
estos si son los acordes originalea de una excelente creacion del grupo de
culto del rock peruano. Elio Roca Via

Intro:

A#m      G#      F#       C#  
Ah Ah Ah Ah Ah Ah Ah Ah Ah Ah

A#m      G#
Ah Ah Ah Ah

    F#                   F#m           F#    G#   C#     
-----------------------------------------------
-----------------------------------------------
-----------------------------------------------
-----------------------------------------------
----8-8-8-9-9-9-8-6-9------9-8-8--9-8-8--9-8-8- 
--------------------------------9------9------9
                           (BIS)


A#m         G#      
Que fuerte suena el viento
F#       C#            
asi pasa la vida
A#m      G#      
te dejo mi silencio
F#                F#m     G#            
me llevo alguna pena de ti

5/9-5/8-6/9

A#m         G#      
que duro es el silencio
F#           C#                                              
que bellos son sus ojos
A#m         G#      
conservo una esperanza
F#        F#m              G#
Tal vez así se acuerde de mí

5/9-5/8-5/8-6/9
5/9-5/8-5/8-6/9
5/9-5/8-5/8-6/9-6/9

Coro:

   A#m                      F#    
La ví!!!! por las alturas arriba de mi
   A#m                            G#    
volé!!!!  por la atmósfera hipnotizado volé
                  C#
Como en un vuelo irreal me elevé
                   F# 
por el espacio estelar me elevé
                G#
por ultima vez yo quería ver
                 C#
solo en sus ojos yo quería ver

 
-----------------------------------------------
---6-6-6-6-6-6----6-6-6-6-6-6-----6-6-6-6-4-4--
-----------------------------------------------
-----------------------------------------------
-----------------------------------------------
-----------------------------------------------


-----------------------------------------------
-----------4-6-7-6-4-6-------------------------
------3-5-6------------------------------------
----6------------------------------------------
-----------------------------------------------
-----------------------------------------------

F#       G#                C#  
Dios y el diablo al ser el mismo
F#                G#  
comparten la misma cara
          C#                G#  
la esperanza de la tumba se levanta
              C#  
como un rayo cegador
     F#        G#                 C#  
ven amigo ven, dame un beso brinda conmigo

 
A#m       G#      
Pudiera haberle dicho
F#           C#                                              
que muero por sus ojos
A#m         G#      
que quisiera tocarla 
F#       F#m            G#                                              
solo besarla un poco, así

 
A#m       G#         F#           C#                                              
Quisiera comentarle, que bella es su sonrisa
A#m       G#      
que sola está mi vida
F#           F#m      
que el mundo me da risa
                   G#      
y que también se ríe de mí


5/9-5/8-5/8-6/9
5/9-5/8-5/8-6/9
5/9-5/8-5/8-6/9-6/9

Coro:

   A#m                      F#    
La ví!!!! por las alturas arriba de mi
   A#m                            G#    
volé!!!!  por la atmósfera hipnotizado volé
                  C#
Como en un vuelo irreal me elevé
                   F# 
por el espacio estelar me elevé
                G#
por ultima vez yo quería ver
                 C#
solo en sus ojos yo quería ver

G#         
Ahhhhhhhh 

F#       F#m
AhhhhAhhhh 
       G#
AhhAhhAhhhhhh

       F#     G#     C#      F#     G#     C#        
-----------------------------------------------
-----------------------------------------------
-----------------------------------------------
-----------------------------------------------
--9-8-8--9-8-8--9-8-8----9-8-8--9-8-8--9-8-8- 
-------9------9------9--------9------9------9
                           (BIS)
Suggest correction
Give kudos to tab author, rate the tab!
1 2 3 4 5
comments
print report bad tab
guest
You may want to rate the tab now too:
select rating
Wanna post a correction for this tab? Suggest correction