Oops, an error
Loading. Please wait.

Balada De Un Encuentro Fugaz Tab

version 2
version 2

Whole song

84 views 1 this week
no commentswrite comment
1 2 3 4 5
3 more votes to show rating
add to favorites
launch autoscroll
font size
0
reset
how to read this tab
guitar tuner
×
Best way to learn
"Balada De Un Encuentro Fugaz"
Autoscroll
slow
fast
+/-
esc
set tempo
stop
Intro :


     A#m  G#   F#  C#

      AAAAAAAHHHHHHHH AAAAHHHHH


 e ------------------------------------------------------------
 b ------------------------------------------------------------
 g ------------------------------------------------------------
 d --------------3-4-4--4-3---4-(4)-4-3-3----4-3-3----4-3-3--
-
 d --------------3-4-4---4-3--4-----4-3-3----4-3-3----4-3-3-----
 a ----------1-4------------4-------------4--------4--------4--
 e ------------------------------------------------------------

                                        (acordes: A#m-G#-F#-F#m-C#)..estos van con el tab

 e ---------------------------------
 b ---------------------------------
 g ---------------------------------
 d ----4-3-3----4-3-3----4-3-3------
 a ----------4--------4--------4----
 e ---------------------------------


Estrofa 1 :

C#            G#

  Que fuerte suena el viento
F#         C#           A#m
     asi pasa la vida
           G#        F#
  te dejo mi silencio
          F#m             G#
  me llevo alguna pena de ti

 e --------------
 b --------------
 g --------------
 D --4--3--------      (riff 1)
 a -------4------
 e --------------

A#m           G#
  que duro es el silencio
F#           C#            A#m
   que bellos son sus ojos
            G#          F#
  conservo una esperanza
           F#m              G#
  Tal vez asi se acuerde de mí


            C#

 e ---------------------------------------------
 b ---------------------------------------------
 G ---------------------------------------------     (riff 2)
 d ----4-3-3----4-3-3----4-3-3------------------
 a ----------4--------4--------4--4---6-4-3-----
 e -----------------------------------------6---


Coro:

    A#m                F#
  La ví!!!! por las alturas arriba de mi

    A#m               G#

  volé!!!!  por la atmósfera hipnotizado volé

             C#

  Como en un vuelo irreal me elevé

           F#

  por el espacio estelar me elevé

               G#

  por última vez yo quería ver

               C#
  solo en sus ojos yo quería ver

e -----------
b -----------
g -----------       = &
d -----------
a --6-4-3----
e --------6--


SOLO:


                        &

e --------------------------
b --------------------------
g --3s10-10-10-10-10-10s(3)-    (x2)
d --------------------------
a --------------------------
e --------------------------


e -------------------------------------------------
b ------------------------------4h6-7-6--4h6-(6)---
g --3s10-10-10-10-8-8--3-5-6-(3)-------------------
d -------------------------------------------------
a -------------------------------------------------
e -------------------------------------------------


Estrofa 2:


F#            G#              C#
  Dios y el diablo al ser el mismo

      F#              G#
  comparten la misma cara

          C#           F#        G#
  la esperanza de la tumba se levanta

           C#
  como un rayo cegador

C#      F#     G#                       C#
  ven amigo ven, dame un beso y brinda conmigo


A#m           G#
  Pudiera haberle dicho
F#            C#
  que muero por sus ojos
A#m           G#
  que quisiera tocarla
F#       F#              G#
  solo besarla un poco, así

e -----------
b -----------
g -----------
d --4-3-3----
a --------4--
e -----------


A#m            G#        F#             C#
  Quisiera comentarle, que bella es su sonrisa

A#m           G#
  que sola está mi vida

F#                F#m
  que el mundo me da risa

F#m                    F#m    G#
  y que el también se ríe de mí

             C#

 e ---------------------------------------------
 b ---------------------------------------------
 G ---------------------------------------------     (riff 2)
 d ----4-3-3----4-3-3----4-3-3------------------
 a ----------4--------4--------4--4---6-4-3-----
 e -----------------------------------------6---


Coro:

    A#m                 F#               &

  La ví!!!! por las alturas arriba de mi

    A#m               G#

  volé!!!!  por la atmósfera hipnotizado volé

             C#

  Como en un vuelo irreal me elevé

           F#

  por el espacio estelar me elevé

               G#

  por última vez yo quería ver

               C#
  solo en sus ojos yo quería ver


G#        F#  F#m       G#
 AAAAAAAAAAHHHH  AAAAhhhh


 e ---------------------------------
 b ---------------------------------
 g ---------------------------------
 D ----4-3-3----4-3-3----4-3-3------
 a ----------4--------4--------4----
 e ---------------------------------


 e ---------------------------------
 b ---------------------------------
 G ---------------------------------      ...........(fin)
 D ----4-3-3----4-3-3----4-3-3------
 a ----------4--------4--------4-(4)
 e ---------------------------------
Suggest correction
Give kudos to tab author, rate the tab!
1 2 3 4 5
comments
print report bad tab
guest
You may want to rate the tab now too:
select rating
Wanna post a correction for this tab? Suggest correction