Oops, an error
Loading. Please wait.

Balada De Un Encuentro Fugaz Tab

version 3
version 3

Whole song

76 views 1 this week
no commentswrite comment
1 2 3 4 5
3 more votes to show rating
add to favorites
launch autoscroll
font size
0
reset
how to read this tab
guitar tuner
Autoscroll
slow
fast
+/-
esc
set tempo
stop
Help us to improve Ultimate-Guitar.com Take our survey!
×
Bueno creo que que este tab es mejor que los otros por que la verdad
es que les di una leida a los otros y algunos no suenan a nada de nada 
no se por que mandan tabs que de verdad estan malos...muy malos.
Ya he mandado otros tabs y porsupuesto que son buenos asi que confien 
en este tab que ha de estar en un 95%  encontraran los riffs,
solos y punteos bien.


Bueno aca esta......


Intro :


     A#m  G#   F#  C#
 
      AAAAAAAHHHHHHHH AAAAHHHHH
     
     A#m G#   F#  F#m  G#            C#

 e -----------------------------------------------------------    
 b -----------------------------------------------------------
 g -----------------------------------------------------------                                   
 d --------------3-4----4-3-3-4--4-3-3----4-3-3----4-3-3------                                   
 a ----------1-4-----------------------4--------4--------4----
 e -----------------------------------------------------------

           C#

 e ---------------------------------    
 b ---------------------------------
 g ---------------------------------          
 d ----4-3-3----4-3-3----4-3-3------           
 a ----------4--------4--------4----
 E ---------------------------------            ([ch]A[/ch] primera toca esto mientras
                                                  la segunda toca los acordes)


Estrofa 1 :

C#            G#             

  Que fuerte suena el viento
F#         C#           A#m      
     asi pasa la vida
           G#        F#                     
  te dejo mi silencio
          F#m             G#                      
  me llevo alguna pena de ti

 e --------------   
 b --------------
 g --------------    
 D --4--3--------      (riff 1)        
 a -------4------
 e --------------

C#           G#                              
  que duro es el silencio
F#           C#            A#m                               
   que bellos son sus ojos
            G#          F#                                
  conservo una esperanza
           F#m              G#   
  Tal vez asi se acuerde de mí


            C#

 e -------------------------------------------    
 b -------------------------------------------
 G -------------------------------------------      (riff 2)       
 d ----4-3-3----4-3-3----4-3-3-------6-4-3----           
 a ----------4--------4--------4--4--------6--
 e -------------------------------------------
 

NOTA:En el coro
e -----------
b -----------      
g -----------   (riff 3)   palabra que este con '&' arriba,la primera toca el riff 3. 
d --6-4-3----
a --------6--
e -----------


Coro:

    A#m               & F#               &
  
  La ví!!!! por las alturas arriba de mi
   
    A#m             & G#           
  
  volé!!!!  por la atmósfera hipnotizado volé
                                                    
             C#
 
  Como en un vuelo irreal me elevé                  
                                                               
           F#      
  
  por el espacio estelar me elevé                   
                                                    
               G#  
 
  por última vez yo quería ver                      
                                                   
               C#  
  solo en sus ojos yo quería ver

e -----------
b -----------      
g -----------   
d --6-4-3----
a --------6--
e -----------
  
SOLO:

                    &                     &            
                    
e ----------------------------------------------------------------    
b-1s(5)-5-5-5-5-5-5s(1)--1s(5)-5-5-5-5-5-5s(1)--1s(5)-5-5-5-5-3-3-
g ----------------------------------------------------------------
d ----------------------------------------------------------------
a ----------------------------------------------------------------
e ----------------------------------------------------------------

e ----------------------------------
b -----------3h5-6-5-3-3h5-(5)-5s0--      
g -5-4-2-4h5------------------------   
d ----------------------------------
a --------4-------------------------
e ----------------------------------


Estrofa 2:

Nota :

(riff 4)

La primera guitarra toca esto seguido en toda la estrofa que viene el 
número de tocadas la pongo al lado del riff 4.

e -----4----
b -----6----
g --6-------              
d-----------
a ----------
e ----------


(riff 4) x14

F#             G#               C#
  Dios y el diablo al ser el mismo
  
         F#            G#      
  comparten la misma cara
             
          C#           F#            G#
  la esperanza de la tumba se levanta
  
                C#
  como un rayo cegador
    
       F#          G#                 C#          
  ven amigo ven, dame un beso y brinda conmigo

 
(riff 4) x7

A#m           G#    
  Pudiera haberle dicho
F#            C#            
  que muero por sus ojos
A#m           G#            
  que quisiera tocarla 
F#       F#              G#            
  solo besarla un poco, así

e -----------
b -----------      
g -----------   (riff 5)
d --4-3-3----
a --------4--
e -----------

(riff) x7
  
A#m            G#        F#             C#
  Quisiera comentarle, que bella es su sonrisa

A#m           G#  
  que sola está mi vida

F#                F#m  
  que el mundo me da risa
         
F#                    F#m    G#
  y que el también se ríe de mí

 
             C#
 e -------------------------------------------    
 b -------------------------------------------
 G -------------------------------------------      (riff 2)       
 D ----4-3-3----4-3-3----4-3-3-------6-4-3----           
 a ----------4--------4--------4--4--------6--
 e -------------------------------------------
 

Coro:

    A#m               & F#               &
  
  La ví!!!! por las alturas arriba de mi
   
    A#m             & G#           
  
  volé!!!!  por la atmósfera hipnotizado volé
                                                    
             C#
 
  Como en un vuelo irreal me elevé                  
                                                               
           F#      
  
  por el espacio estelar me elevé                   
                                                    
               G#  
 
  por última vez yo quería ver                      
                                                   
               C#  
  solo en sus ojos yo quería ver


G#        F#  F#m       G#
 AAAAAAAAAAHHHH  AAAAhhhh


            C#

 e ---------------------------------    
 b ---------------------------------
 g ---------------------------------          
 D ----4-3-3----4-3-3----4-3-3------           
 a ----------4--------4--------4----
 e ---------------------------------

             C#                C#

 e ---------------------------------    
 b ---------------------------------
 G ---------------------------------      ...........(fin)          
 D ----4-3-3----4-3-3----4-3-3------           
 a ----------4--------4--------4-(4)
 e ---------------------------------
Suggest correction
Give kudos to tab author, rate the tab!
1 2 3 4 5
comments
print report bad tab
guest
You may want to rate the tab now too:
select rating
Wanna post a correction for this tab? Suggest correction