Oops, an error
Loading. Please wait.

Cada Vez Tab

38 views 1 this week
no commentswrite comment
1 2 3 4 5
3 more votes to show rating
add to favorites
launch autoscroll
font size
0
reset
how to read this tab
guitar tuner
Autoscroll
slow
fast
+/-
esc
set tempo
stop
Cada vez


A        E       F#m           D                E           F#m      D
 Comenzar a caer...con la luz...de una tarde común...o una conversación.

 | A         E             F#m                   D        E            F#m         D        E
 |  Cada vez...vuelve a mí...con el gesto de un día como hoy...con la risa de una tarde común.
 |
 | Bm        E              A                D           E
Y|  Cada vez...vuelve a mí...con la forma de una tarde gris.  (tocar con X)
 |
 |
 |  A         E             F#m        D                Bm         E
 |   Cada vez...vuelve a mí...un rumor... con un beso suave o una voz.

e ----------------------------------------------------------------------
b ----------------------------------------------------------------------
g ----------------------------------------------------------------------
d ------------------------------------7-----------------4---------------
a -7--------2--------------4----------5-----------------2---------2-----
e -5--------0--------------2--------------------------------------0-----


   Bm       A#m                     Bm         A              F#m               Bm
    Cada vez... que en la tarde murío...recuerdo luz...que saliste gris con el sol y

e --------------------------------------------------------------------------------------
b --------------------------------------------------------------------------------------
g --------------------------------------------------------------------------------------
d --------------------------------------------------------------------------------------
a -2---------1-----------------------2---------0--------------------------------2-------
e ------------------------------------------------------------2-------------------------


         E          A
   amanecí otra vez...contra todas las cosas.

e -------------------------------------------
b -------------------------------------------
g -------------------------------------------
d -------------------------------------------
a ------------------0------------(0)---------
e -------0-----------------------------------


Solo : acordes (Bm-E-A-D / F#m)

e -------------2------------------0h(2)-------------------2h(3)-3-2-0------------
b -------2-3-5---5-3---2-3-2--5-0-------3------3--------3-------------3s2--(2)---
g -2s(4)-----------------------------------2-4------2-4--------------------------
d -------------------------------------------------------------------------------
a -------------------------------------------------------------------------------
e -------------------------------------------------------------------------------


   Bm        E             A                 D           E
    Cada vez...vuelve a mí...con la forma de una tarde gris.  (tocar con X e Y)


   A         E             F#m        D                Bm         E
    Cada vez...vuelve a mí...un rumor... con un beso suave o una voz.

e ----------------------------------------------------------------------
b ----------------------------------------------------------------------
g ----------------------------------------------------------------------
d ------------------------------------7-----------------4---------------
a -7--------2--------------4----------5-----------------2---------2-----
e -5--------0--------------2--------------------------------------0-----


   Bm       A#m                     Bm         A              F#m               Bm
    Cada vez... que en la tarde murío...recuerdo luz...que saliste gris con el sol y

e --------------------------------------------------------------------------------------
b --------------------------------------------------------------------------------------
g --------------------------------------------------------------------------------------
d --------------------------------------------------------------------------------------
a -2---------1-----------------------2---------0--------------------------------2-------
e ------------------------------------------------------------2-------------------------


         E          A                        F#m           ...FIN
   amanecí otra vez...contra todas las cosaaaas.

e -------------------------------------------
b -------------------------------------------
g -------------------------------------------
d -------------------------------------------
a ------------------0------------(0)---------
e -------0-----------------------------------


Nota :

Y =

e -----------------------------------------------------------------------------------
b -5------5----5------5---5------5---7-----7---5------5---7------7---7------5-----7--
g ---6-----------6----------6----------7---------6----------7----------7------6------
d -----7-----------7----------7----------9---------7----------9----------9------7----
a -----------------------------------------------------------------------------------
e -----------------------------------------------------------------------------------


e -------2----------------------------------------------------------------------------
b -----3-----5------5---5------5---7-----7---5-----5---5-----5---5-----5---7------7---
g ---4---------6----------6----------7---------6---------6---------6---------7--------
d ---------------7----------7----------9---------7---------7---------7---------9------
a -2----------------------------------------------------------------------------------
e ------------------------------------------------------------------------------------


e ----------------------------------
b -7------7---7-----7---5-----5-----
g ---7----------7---------6---------
d -----9----------9---------7-------
a ----------------------------------
e ----------------------------------


X =

   Bm        E        A         D       E

e -------2----------0---------0-------2-------0--------
b -----3----------0---------2-------3-------0----------
g ---4----------1---------2-------2-------1------------
d ------------------------------0----------------------
a -2------------------0--------------------------------
e -----------0--------------------------0--------------
Suggest correction
Give kudos to tab author, rate the tab!
1 2 3 4 5
comments
print report bad tab
guest
Wanna post a correction for this tab? Suggest correction