Oops, an error
Loading. Please wait.

Cuenta La Historia Tab

29 views 1 this week
no commentswrite comment
1 2 3 4 5
3 more votes to show rating
add to favorites
launch autoscroll
font size
0
reset
how to read this tab
guitar tuner
×
Best way to learn
"Cuenta La Historia"
Autoscroll
slow
fast
+/-
esc
set tempo
stop
HOLA A TODOS , AQUI LES MANDO UNA EXCELENTE CANCION DE MAR DE COPAS 
ESPERO QUE LES GUSTE
¡A TOCAR SE A DICHO!

Arpegio: Am, B7, C, B7

Intro: Em, Am (2 veces)

PIANO:
e-0--0-2-3-2-0-2-0-------0-------------------------------
B------------------3--1-3-3-1-3-1-0--0-1-3-1-0-1-0-------
G--------------------------------------------------2-0-2-
D--------------------------------------------------------
A--------------------------------------------------------
E--------------------------------------------------------

(Cuando se toque los acordes indicados hay una guitarra acústica que toca lo siguiente)

    Em             Am          D
e-0/2-0---3--|---0/2-0---3-|--0/2----|
B------0-----|--------1----|-----3---|
G-------0----|---------2---|-------2-|
D------------|-------------|---------|
A------------|-------------|---------|
E------------|-------------|---------|


Em                      Am
A la luz de un oscuro farol
                    Em
Y roto ya en mi honor
                       Am
A ti, mi padre y mi mentor, a ti      
          D              G                D            
Con mi fidelidad eterna tu puedes contar
           G          D    
A ti me entrego en armas
          G           C
Ahora soy tuyo y deberé un favor                        
               B 
Siempre un favor 


PIANO:
e-8-7----------------
B----10-8-7----------
G----------9---------
D--------------------
A--------------------
E--------------------

                              
Em                         Am
Tu amor es duro como una piedra      
                   Em            
Y tú eres dura igual 
                     Am
Y yo tan solo así quede      
                 D          G             D
Solo como una piedra en el camino por correr      
          G             D 
Viejos albures de almas  
          G                    C                  
Y te pregunto si ese fue el objeto                   
                   B
De rapiña en tu querer      

CORO:      
                              
  G          D              B
Cuenta la historia en su poder      
                       Em 
Que no hay venganza demasiado
           C               B                  
Cuenta la historia en su poder      
C                          G                   
Eh eh eh    Historias de amor
C        Am   D                               
Eh eh eh                       
               G            C  D
Historias de emoción .   .  .   .             

( Repetir Intro: )

Em                        Am
Por romper las leyes al azar      
             Em
Al pecado se acogió            
                       Am
Y así se paga un caro error, así      
               D            G               D      
Ahora el perseguidor va tras de mí por ese error      
              G            D
Como un mal fruto de ese amor      
           G         C            
Y así te pido la venganza quiero yo
      B                  
La quiero yo.......      


    G         D     B            Em         C       B                  
e------------------------------------------------------
B------------------------------------------------------
G------------------------------------------------------
D--------7-9-7------------9-10-9-7-------7-9-7---------
A--10--10-----10-9-7-9---7--------10---10-----10-9-7-9-
E------------------------------------------------------


( Repetir CORO )

PIANO FINAL:
                                          Em
e--0-3--0--0-3-3-|-10-8-7---------    |--------
B-3----0--3------|-------10-8-7---    |----8---
G----------------|-------------9--    |----9---
D----------------|----------------    |----9---
A----------------|----------------    |----7---
E----------------|----------------    |-------- 


esta cancion le dedico a mis padres: NELSON Y GLADYS y porsupuesto a mis hermanos del almas:JAVIER Y PAUL 

BUENO SIN MAS NI MAS ME DESPIDO
-----------------------------------------------------------------------
CUALQUIER CONSULTA, MALETEO O PEDIDO ESCRIBANME A jobseg@
Suggest correction
Give kudos to tab author, rate the tab!
1 2 3 4 5
comments
print report bad tab
guest
You may want to rate the tab now too:
select rating
Wanna post a correction for this tab? Suggest correction